  0
SECTION
  2
HEADER
  9
$ACADVER
  1
AC1015
  9
$ACADMAINTVER
 70
    20
  9
$DWGCODEPAGE
  3
ANSI_1250
  9
$INSBASE
 10
0.0
 20
0.0
 30
0.0
  9
$EXTMIN
 10
647539.8875549656
 20
222871.7200437895
 30
-0.0030612288348948
  9
$EXTMAX
 10
647947.7424469334
 20
223198.0099577299
 30
100.3210616959769
  9
$LIMMIN
 10
647539.9
 20
222871.73
  9
$LIMMAX
 10
647947.73
 20
223198.0
  9
$ORTHOMODE
 70
     0
  9
$REGENMODE
 70
     1
  9
$FILLMODE
 70
     1
  9
$QTEXTMODE
 70
     0
  9
$MIRRTEXT
 70
     0
  9
$LTSCALE
 40
1.0
  9
$ATTMODE
 70
     1
  9
$TEXTSIZE
 40
1.0
  9
$TRACEWID
 40
0.05
  9
$TEXTSTYLE
  7
STANDARD
  9
$CLAYER
  8
0
  9
$CELTYPE
  6
BYLAYER
  9
$CECOLOR
 62
   256
  9
$CELTSCALE
 40
1.0
  9
$DISPSILH
 70
     0
  9
$DIMSCALE
 40
1.0
  9
$DIMASZ
 40
0.18
  9
$DIMEXO
 40
0.0625
  9
$DIMDLI
 40
0.38
  9
$DIMRND
 40
0.0
  9
$DIMDLE
 40
0.0
  9
$DIMEXE
 40
0.18
  9
$DIMTP
 40
0.0
  9
$DIMTM
 40
0.0
  9
$DIMTXT
 40
0.18
  9
$DIMCEN
 40
0.09
  9
$DIMTSZ
 40
0.0
  9
$DIMTOL
 70
     0
  9
$DIMLIM
 70
     0
  9
$DIMTIH
 70
     1
  9
$DIMTOH
 70
     1
  9
$DIMSE1
 70
     0
  9
$DIMSE2
 70
     0
  9
$DIMTAD
 70
     0
  9
$DIMZIN
 70
     0
  9
$DIMBLK
  1

  9
$DIMASO
 70
     1
  9
$DIMSHO
 70
     1
  9
$DIMPOST
  1

  9
$DIMAPOST
  1

  9
$DIMALT
 70
     0
  9
$DIMALTD
 70
     2
  9
$DIMALTF
 40
25.4
  9
$DIMLFAC
 40
1.0
  9
$DIMTOFL
 70
     0
  9
$DIMTVP
 40
0.0
  9
$DIMTIX
 70
     0
  9
$DIMSOXD
 70
     0
  9
$DIMSAH
 70
     0
  9
$DIMBLK1
  1

  9
$DIMBLK2
  1

  9
$DIMSTYLE
  2
STANDARD
  9
$DIMCLRD
 70
     0
  9
$DIMCLRE
 70
     0
  9
$DIMCLRT
 70
     0
  9
$DIMTFAC
 40
1.0
  9
$DIMGAP
 40
0.09
  9
$DIMJUST
 70
     0
  9
$DIMSD1
 70
     0
  9
$DIMSD2
 70
     0
  9
$DIMTOLJ
 70
     1
  9
$DIMTZIN
 70
     0
  9
$DIMALTZ
 70
     0
  9
$DIMALTTZ
 70
     0
  9
$DIMUPT
 70
     0
  9
$DIMDEC
 70
     4
  9
$DIMTDEC
 70
     4
  9
$DIMALTU
 70
     2
  9
$DIMALTTD
 70
     2
  9
$DIMTXSTY
  7
STANDARD
  9
$DIMAUNIT
 70
     0
  9
$DIMADEC
 70
     0
  9
$DIMALTRND
 40
0.0
  9
$DIMAZIN
 70
     0
  9
$DIMDSEP
 70
    46
  9
$DIMATFIT
 70
     3
  9
$DIMFRAC
 70
     0
  9
$DIMLDRBLK
  1

  9
$DIMLUNIT
 70
     2
  9
$DIMLWD
 70
    -2
  9
$DIMLWE
 70
    -2
  9
$DIMTMOVE
 70
     0
  9
$LUNITS
 70
     2
  9
$LUPREC
 70
     2
  9
$SKETCHINC
 40
0.1
  9
$FILLETRAD
 40
0.0
  9
$AUNITS
 70
     0
  9
$AUPREC
 70
     0
  9
$MENU
  1
.
  9
$ELEVATION
 40
0.0
  9
$PELEVATION
 40
0.0
  9
$THICKNESS
 40
0.0
  9
$LIMCHECK
 70
     0
  9
$CHAMFERA
 40
0.0
  9
$CHAMFERB
 40
0.0
  9
$CHAMFERC
 40
0.0
  9
$CHAMFERD
 40
0.0
  9
$SKPOLY
 70
     0
  9
$TDCREATE
 40
2454798.645119051
  9
$TDUCREATE
 40
2454798.603452385
  9
$TDUPDATE
 40
2454798.646290660
  9
$TDUUPDATE
 40
2454798.604623993
  9
$TDINDWG
 40
0.0011954977
  9
$TDUSRTIMER
 40
0.0011954977
  9
$USRTIMER
 70
     1
  9
$ANGBASE
 50
0.0
  9
$ANGDIR
 70
     0
  9
$PDMODE
 70
     0
  9
$PDSIZE
 40
0.0
  9
$PLINEWID
 40
0.0
  9
$SPLFRAME
 70
     0
  9
$SPLINETYPE
 70
     6
  9
$SPLINESEGS
 70
     8
  9
$HANDSEED
  5
4C4B58
  9
$SURFTAB1
 70
     6
  9
$SURFTAB2
 70
     6
  9
$SURFTYPE
 70
     6
  9
$SURFU
 70
     6
  9
$SURFV
 70
     6
  9
$UCSBASE
  2

  9
$UCSNAME
  2

  9
$UCSORG
 10
0.0
 20
0.0
 30
0.0
  9
$UCSXDIR
 10
1.0
 20
0.0
 30
0.0
  9
$UCSYDIR
 10
0.0
 20
1.0
 30
0.0
  9
$UCSORTHOREF
  2

  9
$UCSORTHOVIEW
 70
     0
  9
$UCSORGTOP
 10
0.0
 20
0.0
 30
0.0
  9
$UCSORGBOTTOM
 10
0.0
 20
0.0
 30
0.0
  9
$UCSORGLEFT
 10
0.0
 20
0.0
 30
0.0
  9
$UCSORGRIGHT
 10
0.0
 20
0.0
 30
0.0
  9
$UCSORGFRONT
 10
0.0
 20
0.0
 30
0.0
  9
$UCSORGBACK
 10
0.0
 20
0.0
 30
0.0
  9
$PUCSBASE
  2

  9
$PUCSNAME
  2

  9
$PUCSORG
 10
0.0
 20
0.0
 30
0.0
  9
$PUCSXDIR
 10
1.0
 20
0.0
 30
0.0
  9
$PUCSYDIR
 10
0.0
 20
1.0
 30
0.0
  9
$PUCSORTHOREF
  2

  9
$PUCSORTHOVIEW
 70
     0
  9
$PUCSORGTOP
 10
0.0
 20
0.0
 30
0.0
  9
$PUCSORGBOTTOM
 10
0.0
 20
0.0
 30
0.0
  9
$PUCSORGLEFT
 10
0.0
 20
0.0
 30
0.0
  9
$PUCSORGRIGHT
 10
0.0
 20
0.0
 30
0.0
  9
$PUCSORGFRONT
 10
0.0
 20
0.0
 30
0.0
  9
$PUCSORGBACK
 10
0.0
 20
0.0
 30
0.0
  9
$USERI1
 70
     0
  9
$USERI2
 70
     0
  9
$USERI3
 70
     0
  9
$USERI4
 70
     0
  9
$USERI5
 70
     0
  9
$USERR1
 40
0.0
  9
$USERR2
 40
0.0
  9
$USERR3
 40
0.0
  9
$USERR4
 40
0.0
  9
$USERR5
 40
0.0
  9
$WORLDVIEW
 70
     1
  9
$SHADEDGE
 70
     3
  9
$SHADEDIF
 70
    70
  9
$TILEMODE
 70
     1
  9
$MAXACTVP
 70
    64
  9
$PINSBASE
 10
0.0
 20
0.0
 30
0.0
  9
$PLIMCHECK
 70
     0
  9
$PEXTMIN
 10
1.000000000000000E+20
 20
1.000000000000000E+20
 30
1.000000000000000E+20
  9
$PEXTMAX
 10
-1.000000000000000E+20
 20
-1.000000000000000E+20
 30
-1.000000000000000E+20
  9
$PLIMMIN
 10
0.0
 20
0.0
  9
$PLIMMAX
 10
12.0
 20
9.0
  9
$UNITMODE
 70
     0
  9
$VISRETAIN
 70
     1
  9
$PLINEGEN
 70
     0
  9
$PSLTSCALE
 70
     1
  9
$TREEDEPTH
 70
  3020
  9
$CMLSTYLE
  2
STANDARD
  9
$CMLJUST
 70
     0
  9
$CMLSCALE
 40
1.0
  9
$PROXYGRAPHICS
 70
     1
  9
$MEASUREMENT
 70
     0
  9
$CELWEIGHT
370
    -1
  9
$ENDCAPS
280
     0
  9
$JOINSTYLE
280
     0
  9
$LWDISPLAY
290
     0
  9
$INSUNITS
 70
     0
  9
$HYPERLINKBASE
  1

  9
$STYLESHEET
  1

  9
$XEDIT
290
     1
  9
$CEPSNTYPE
380
     0
  9
$PSTYLEMODE
290
     1
  9
$FINGERPRINTGUID
  2
{B6621685-3EB2-4692-BB3D-0B3BE8C97096}
  9
$VERSIONGUID
  2
{62020DDC-F598-4A9A-B590-0997808D6858}
  9
$EXTNAMES
290
     1
  9
$PSVPSCALE
 40
0.0
  9
$OLESTARTUP
290
     0
  0
ENDSEC
  0
SECTION
  2
CLASSES
  0
CLASS
  1
WIPEOUT
  2
AcDbWipeout
  3
"WipeOut|Product Desc: Object Enabler for WipeOut entity^I^I^I^I^I^I|Company: Autodesk, Inc.^I^I^I^I^I^I|WEB Address: www.autodesk.com"
 90
    32895
280
     0
281
     1
  0
CLASS
  1
WIPEOUTVARIABLES
  2
AcDbWipeoutVariables
  3
"WipeOut|Product Desc:     WipeOut Dbx Application|Company:          Autodesk, Inc.|WEB Address:      www.autodesk.com"
 90
    32768
280
     0
281
     0
  0
CLASS
  1
ACDBDICTIONARYWDFLT
  2
AcDbDictionaryWithDefault
  3
ObjectDBX Classes
 90
        0
280
     0
281
     0
  0
CLASS
  1
TABLESTYLE
  2
AcDbTableStyle
  3
ObjectDBX Classes
 90
     2047
280
     0
281
     0
  0
CLASS
  1
DICTIONARYVAR
  2
AcDbDictionaryVar
  3
ObjectDBX Classes
 90
        0
280
     0
281
     0
  0
CLASS
  1
ACDBPLACEHOLDER
  2
AcDbPlaceHolder
  3
ObjectDBX Classes
 90
        0
280
     0
281
     0
  0
CLASS
  1
LAYOUT
  2
AcDbLayout
  3
ObjectDBX Classes
 90
        0
280
     0
281
     0
  0
ENDSEC
  0
SECTION
  2
TABLES
  0
TABLE
  2
VPORT
  5
1C2
330
0
100
AcDbSymbolTable
 70
     2
  0
VPORT
  5
4C4B52
330
1C2
100
AcDbSymbolTableRecord
100
AcDbViewportTableRecord
  2
*Active
 70
     0
 10
0.0
 20
0.0
 11
1.0
 21
1.0
 12
647743.8150009496
 22
223034.8650007597
 13
0.0
 23
0.0
 14
0.5
 24
0.5
 15
0.5
 25
0.5
 16
0.0
 26
0.0
 36
1.0
 17
0.0
 27
0.0
 37
0.0
 40
328.7743549095176
 41
1.532401524777636
 42
50.0
 43
0.0
 44
0.0
 50
0.0
 51
0.0
 71
     0
 72
   100
 73
     1
 74
     1
 75
     0
 76
     0
 77
     0
 78
     0
281
     0
 65
     1
110
0.0
120
0.0
130
0.0
111
1.0
121
0.0
131
0.0
112
0.0
122
1.0
132
0.0
 79
     0
146
0.0
  0
ENDTAB
  0
TABLE
  2
LTYPE
  5
1C4
330
0
100
AcDbSymbolTable
 70
    11
  0
LTYPE
  5
1C5
330
1C4
100
AcDbSymbolTableRecord
100
AcDbLinetypeTableRecord
  2
BYBLOCK
 70
     0
  3

 72
    65
 73
     0
 40
0.0
  0
LTYPE
  5
1C6
330
1C4
100
AcDbSymbolTableRecord
100
AcDbLinetypeTableRecord
  2
BYLAYER
 70
     0
  3

 72
    65
 73
     0
 40
0.0
  0
LTYPE
  5
1C7
330
1C4
100
AcDbSymbolTableRecord
100
AcDbLinetypeTableRecord
  2
CONTINUOUS
 70
     0
  3
Solid Line
 72
    65
 73
     0
 40
0.0
  0
LTYPE
  5
1C8
330
1C4
100
AcDbSymbolTableRecord
100
AcDbLinetypeTableRecord
  2
-
 70
     0
  3
Solid Line
 72
    65
 73
     0
 40
0.0
  0
LTYPE
  5
1C9
330
1C4
100
AcDbSymbolTableRecord
100
AcDbLinetypeTableRecord
  2
TELEPÜLÉSHATÁR
 70
     0
  3
4-1-0.4-1-0.4-1-0.4-1
 72
    65
 73
     8
 40
9.199999999999999
 49
4.0
 74
     0
 49
-1.0
 74
     0
 49
0.4
 74
     0
 49
-1.0
 74
     0
 49
0.4
 74
     0
 49
-1.0
 74
     0
 49
0.4
 74
     0
 49
-1.0
 74
     0
  0
LTYPE
  5
1CA
330
1C4
100
AcDbSymbolTableRecord
100
AcDbLinetypeTableRecord
  2
FEKVÉSHATÁR__BELTERÜLET_
 70
     0
  3
5-1-0.4-1-0.4-1
 72
    65
 73
     6
 40
8.8
 49
5.0
 74
     0
 49
-1.0
 74
     0
 49
0.4
 74
     0
 49
-1.0
 74
     0
 49
0.4
 74
     0
 49
-1.0
 74
     0
  0
LTYPE
  5
1CB
330
1C4
100
AcDbSymbolTableRecord
100
AcDbLinetypeTableRecord
  2
0_18_-_PONTSOR__0_5-0_5_
 70
     0
  3
0.5-0.5
 72
    65
 73
     2
 40
1.0
 49
0.5
 74
     0
 49
-0.5
 74
     0
  0
LTYPE
  5
1CC
330
1C4
100
AcDbSymbolTableRecord
100
AcDbLinetypeTableRecord
  2
0_18_-_SZAGGATOTT__3-1_
 70
     0
  3
3-1
 72
    65
 73
     2
 40
4.0
 49
3.0
 74
     0
 49
-1.0
 74
     0
  0
LTYPE
  5
1CD
330
1C4
100
AcDbSymbolTableRecord
100
AcDbLinetypeTableRecord
  2
0_18_-_SZAGGATOTT__6-3_
 70
     0
  3
6-3
 72
    65
 73
     2
 40
9.0
 49
6.0
 74
     0
 49
-3.0
 74
     0
  0
LTYPE
  5
1CE
330
1C4
100
AcDbSymbolTableRecord
100
AcDbLinetypeTableRecord
  2
0_18_-_SZAGGATOTT__1_5-0_5_
 70
     0
  3
1.5-0.5
 72
    65
 73
     2
 40
2.0
 49
1.5
 74
     0
 49
-0.5
 74
     0
  0
LTYPE
  5
1CF
330
1C4
100
AcDbSymbolTableRecord
100
AcDbLinetypeTableRecord
  2
0_18_-_SZAGGATOTT__2-1_
 70
     0
  3
2-1
 72
    65
 73
     2
 40
3.0
 49
2.0
 74
     0
 49
-1.0
 74
     0
  0
LTYPE
  5
1D0
330
1C4
100
AcDbSymbolTableRecord
100
AcDbLinetypeTableRecord
  2
0_18_-_SZAGGATOTT__10-2_
 70
     0
  3
10-2
 72
    65
 73
     2
 40
12.0
 49
10.0
 74
     0
 49
-2.0
 74
     0
  0
LTYPE
  5
1D1
330
1C4
100
AcDbSymbolTableRecord
100
AcDbLinetypeTableRecord
  2
0_18_-_SZAGGATOTT__4-1_
 70
     0
  3
4-1
 72
    65
 73
     2
 40
5.0
 49
4.0
 74
     0
 49
-1.0
 74
     0
  0
ENDTAB
  0
TABLE
  2
LAYER
  5
1D2
330
0
100
AcDbSymbolTable
 70
    19
  0
LAYER
  5
1D3
330
1D2
100
AcDbSymbolTableRecord
100
AcDbLayerTableRecord
  2
0
 70
     0
 62
     7
  6
CONTINUOUS
370
    -3
390
F
  0
LAYER
  5
1D4
330
1D2
100
AcDbSymbolTableRecord
100
AcDbLayerTableRecord
  2
KERET_WIPEOUT
 70
     0
 62
     1
  6
CONTINUOUS
370
    -3
390
F
  0
LAYER
  5
1D5
330
1D2
100
AcDbSymbolTableRecord
100
AcDbLayerTableRecord
  2
ELŐZETES_MINŐSÉGI_OSZTÁY
 70
     0
 62
   241
  6
0_18_-_SZAGGATOTT__3-1_
370
    -3
390
F
  0
LAYER
  5
1D6
330
1D2
100
AcDbSymbolTableRecord
100
AcDbLayerTableRecord
  2
ALRÉSZLET_MŰVELÉSI_ÁG
 70
     0
 62
   112
  6
-
370
    -3
390
F
  0
LAYER
  5
1D7
330
1D2
100
AcDbSymbolTableRecord
100
AcDbLayerTableRecord
  2
HELYRAJZISZÁM
 70
     0
 62
   100
  6
-
370
    -3
390
F
  0
LAYER
  5
1D8
330
1D2
100
AcDbSymbolTableRecord
100
AcDbLayerTableRecord
  2
ELŐZETES_HELYRALYZISZÁM
 70
     0
 62
     1
  6
-
370
    -3
390
F
  0
LAYER
  5
1D9
330
1D2
100
AcDbSymbolTableRecord
100
AcDbLayerTableRecord
  2
FŐSZINTVONAL
 70
     0
 62
     7
  6
-
370
    -3
390
F
  0
LAYER
  5
1DA
330
1D2
100
AcDbSymbolTableRecord
100
AcDbLayerTableRecord
  2
SZABADON_ÁLLÓ_FAL__KERÍTÉSLÁBAZ
 70
     0
 62
    57
  6
0_18_-_PONTSOR__0_5-0_5_
370
    -3
390
F
  0
LAYER
  5
1DB
330
1D2
100
AcDbSymbolTableRecord
100
AcDbLayerTableRecord
  2
FEKVÉSHATÁR
 70
     0
 62
     7
  6
FEKVÉSHATÁR__BELTERÜLET_
370
    -3
390
F
  0
LAYER
  5
1DC
330
1D2
100
AcDbSymbolTableRecord
100
AcDbLayerTableRecord
  2
BURKOLAT___ÚT__JÁRDA_
 70
     0
 62
   134
  6
-
370
    -3
390
F
  0
LAYER
  5
1DD
330
1D2
100
AcDbSymbolTableRecord
100
AcDbLayerTableRecord
  2
FÖLDRÉSZLET_HATÁR
 70
     0
 62
   100
  6
-
370
    -3
390
F
  0
LAYER
  5
1DE
330
1D2
100
AcDbSymbolTableRecord
100
AcDbLayerTableRecord
  2
FELEZŐSZINTVONAL
 70
     0
 62
     5
  6
0_18_-_SZAGGATOTT__2-1_
370
    -3
390
F
  0
LAYER
  5
1DF
330
1D2
100
AcDbSymbolTableRecord
100
AcDbLayerTableRecord
  2
ALAPSZINTVONAL
 70
     0
 62
     2
  6
-
370
    -3
390
F
  0
LAYER
  5
1E0
330
1D2
100
AcDbSymbolTableRecord
100
AcDbLayerTableRecord
  2
VÍZSZINTES_ALAPPONT__FELSŐ_-_N__F
 70
     0
 62
   253
  6
-
370
    -3
390
F
  0
LAYER
  5
1E1
330
1D2
100
AcDbSymbolTableRecord
100
AcDbLayerTableRecord
  2
GÁZVEZETÉK___FELSZÍN_ALATTI_
 70
     0
 62
    51
  6
0_18_-_SZAGGATOTT__10-2_
370
    -3
390
F
  0
LAYER
  5
1E2
330
1D2
100
AcDbSymbolTableRecord
100
AcDbLayerTableRecord
  2
ELEKTROMOS_TÁVVEZETÉK
 70
     0
 62
    12
  6
-
370
    -3
390
F
  0
LAYER
  5
1E3
330
1D2
100
AcDbSymbolTableRecord
100
AcDbLayerTableRecord
  2
EGYÉB
 70
     0
 62
     1
  6
-
370
    -3
390
F
  0
LAYER
  5
1E4
330
1D2
100
AcDbSymbolTableRecord
100
AcDbLayerTableRecord
  2
INGATLAN_NYILVÁNTARTÁSI_TÉRKÉP_
 70
     0
 62
     8
  6
-
370
    -3
390
F
  0
LAYER
  5
1E5
330
1D2
100
AcDbSymbolTableRecord
100
AcDbLayerTableRecord
  2
PONT
 70
     0
 62
     7
  6
CONTINUOUS
370
    -3
390
F
  0
ENDTAB
  0
TABLE
  2
STYLE
  5
1E6
330
0
100
AcDbSymbolTable
 70
    10
  0
STYLE
  5
1E7
330
1E6
100
AcDbSymbolTableRecord
100
AcDbTextStyleTableRecord
  2
STANDARD
 70
     0
 40
0.0
 41
1.0
 50
0.0
 71
     0
 42
1.0
  3
simplex.shx
  4

  0
STYLE
  5
1E8
330
1E6
100
AcDbSymbolTableRecord
100
AcDbTextStyleTableRecord
  2
ELŐZETES_MIN__OSZT_
 70
     0
 40
0.0
 41
1.0
 50
15.0
 71
     0
 42
0.0
  3
ARIAL
  4

1001
ACAD
1000
ARIAL
1071
      300
  0
STYLE
  5
1E9
330
1E6
100
AcDbSymbolTableRecord
100
AcDbTextStyleTableRecord
  2
ING_-NYILVÁNTARTÁSI_TÉRKÉP_MÉRE
 70
     0
 40
0.0
 41
1.0
 50
15.0
 71
     0
 42
0.0
  3
ARIAL
  4

1001
ACAD
1000
ARIAL
1071
      300
  0
STYLE
  5
1EA
330
1E6
100
AcDbSymbolTableRecord
100
AcDbTextStyleTableRecord
  2
ALRÉSZLET_MŰVELÉSI_ÁGA
 70
     0
 40
0.0
 41
1.0
 50
15.0
 71
     0
 42
0.0
  3
ARIAL
  4

1001
ACAD
1000
ARIAL
1071
      300
  0
STYLE
  5
1EB
330
1E6
100
AcDbSymbolTableRecord
100
AcDbTextStyleTableRecord
  2
ELŐZETES_HRSZ
 70
     0
 40
0.0
 41
1.0
 50
15.0
 71
     0
 42
0.0
  3
ARIAL
  4

1001
ACAD
1000
ARIAL
1071
      300
  0
STYLE
  5
1EC
330
1E6
100
AcDbSymbolTableRecord
100
AcDbTextStyleTableRecord
  2
HELYRAJZI_SZÁM__JOGERŐS_
 70
     0
 40
0.0
 41
1.0
 50
15.0
 71
     0
 42
0.0
  3
ARIAL
  4

1001
ACAD
1000
ARIAL
1071
      300
  0
STYLE
  5
1ED
330
1E6
100
AcDbSymbolTableRecord
100
AcDbTextStyleTableRecord
  2
ITRW30
 70
     0
 40
0.0
 41
1.0
 50
0.0
 71
     0
 42
1.0
  3
ITRW_DAT1_M2
  4

1001
ACAD
1000
ITRW_DAT1_M2
1071
      300
  0
STYLE
  5
1EE
330
1E6
100
AcDbSymbolTableRecord
100
AcDbTextStyleTableRecord
  2
ITRW16
 70
     0
 40
0.0
 41
1.0
 50
0.0
 71
     0
 42
1.0
  3
ITRW_DAT1_M2
  4

1001
ACAD
1000
ITRW_DAT1_M2
1071
      300
  0
STYLE
  5
1EF
330
1E6
100
AcDbSymbolTableRecord
100
AcDbTextStyleTableRecord
  2
ITRW105
 70
     0
 40
0.0
 41
1.0
 50
0.0
 71
     0
 42
1.0
  3
ITRW_DAT1_M2
  4

1001
ACAD
1000
ITRW_DAT1_M2
1071
      300
  0
STYLE
  5
1F0
330
1E6
100
AcDbSymbolTableRecord
100
AcDbTextStyleTableRecord
  2
ITRW83
 70
     0
 40
0.0
 41
1.0
 50
0.0
 71
     0
 42
1.0
  3
ITRW_DAT1_M2
  4

1001
ACAD
1000
ITRW_DAT1_M2
1071
      300
  0
ENDTAB
  0
TABLE
  2
VIEW
  5
1F1
330
0
100
AcDbSymbolTable
 70
     0
  0
ENDTAB
  0
TABLE
  2
UCS
  5
1F2
330
0
100
AcDbSymbolTable
 70
     0
  0
ENDTAB
  0
TABLE
  2
APPID
  5
1F3
330
0
100
AcDbSymbolTable
 70
     1
  0
APPID
  5
1F4
330
1F3
100
AcDbSymbolTableRecord
100
AcDbRegAppTableRecord
  2
ACAD
 70
     0
  0
ENDTAB
  0
TABLE
  2
DIMSTYLE
  5
1F5
330
0
100
AcDbSymbolTable
 70
     1
100
AcDbDimStyleTable
 71
     0
  0
DIMSTYLE
105
1F6
330
1F5
100
AcDbSymbolTableRecord
100
AcDbDimStyleTableRecord
  2
STANDARD
 70
     0
340
1E7
  0
ENDTAB
  0
TABLE
  2
BLOCK_RECORD
  5
1F7
330
0
100
AcDbSymbolTable
 70
     5
  0
BLOCK_RECORD
  5
1F8
330
1F7
100
AcDbSymbolTableRecord
100
AcDbBlockTableRecord
  2
*MODEL_SPACE
340
4C4B4C
  0
BLOCK_RECORD
  5
1F9
330
1F7
100
AcDbSymbolTableRecord
100
AcDbBlockTableRecord
  2
*PAPER_SPACE
340
4C4B4D
  0
BLOCK_RECORD
  5
1FA
330
1F7
100
AcDbSymbolTableRecord
100
AcDbBlockTableRecord
  2
RÉSZLETPONT_EGYÉB__I__RENDŰ_
340
0
102
{BLKREFS
331
5CA
331
5CB
331
5CC
331
5CE
331
5D0
331
5D1
331
5D3
331
5D4
331
5D5
331
5D6
331
5D7
331
5D8
331
5D9
331
5DA
331
5DB
331
5DC
331
5DD
331
5DE
331
5DF
331
5E0
331
5E8
331
5E9
331
5EA
331
5EB
331
5EC
331
5ED
331
5EE
331
5EF
331
5F0
331
5F1
331
5F2
331
5F3
331
5F4
331
5F5
331
5F6
331
5F7
331
5F8
331
5F9
331
5FA
331
5FB
331
5FC
331
5FD
331
5FE
331
5FF
331
600
331
601
331
602
331
603
331
604
331
605
331
606
331
611
331
613
331
614
331
615
331
616
331
617
331
618
331
619
331
61A
331
61B
331
61C
331
61D
331
61E
331
624
331
625
102
}
  0
BLOCK_RECORD
  5
1FB
330
1F7
100
AcDbSymbolTableRecord
100
AcDbBlockTableRecord
  2
RÉSZLETPONT__KARÓ_
340
0
102
{BLKREFS
331
5CD
331
5D2
331
5E1
331
5E2
331
5E7
331
607
331
612
102
}
  0
BLOCK_RECORD
  5
1FC
330
1F7
100
AcDbSymbolTableRecord
100
AcDbBlockTableRecord
  2
FELMÉRÉSI_AP__KŐ
340
0
102
{BLKREFS
331
5CF
102
}
  0
BLOCK_RECORD
  5
1FD
330
1F7
100
AcDbSymbolTableRecord
100
AcDbBlockTableRecord
  2
ESÉSTÜSKE
340
0
102
{BLKREFS
331
5E3
331
5E4
331
5E5
331
5E6
331
608
331
609
331
60A
331
60B
331
60C
331
60D
331
60E
331
60F
331
610
331
61F
331
620
331
621
331
622
331
623
102
}
  0
BLOCK_RECORD
  5
1FE
330
1F7
100
AcDbSymbolTableRecord
100
AcDbBlockTableRecord
  2
ELEKTROMOS_VEZ__NYILAI
340
0
  0
ENDTAB
  0
ENDSEC
  0
SECTION
  2
BLOCKS
  0
BLOCK
  5
1FF
330
1F8
100
AcDbEntity
  8
0
100
AcDbBlockBegin
  2
*MODEL_SPACE
 70
     0
 10
0.0
 20
0.0
 30
0.0
  3
*MODEL_SPACE
  1

  0
ENDBLK
  5
200
330
1F8
100
AcDbEntity
  8
0
100
AcDbBlockEnd
  0
BLOCK
  5
201
330
1F9
100
AcDbEntity
 67
     1
  8
0
100
AcDbBlockBegin
  2
*PAPER_SPACE
 70
     0
 10
0.0
 20
0.0
 30
0.0
  3
*PAPER_SPACE
  1

  0
ENDBLK
  5
202
330
1F9
100
AcDbEntity
 67
     1
  8
0
100
AcDbBlockEnd
  0
BLOCK
  5
203
330
1FA
100
AcDbEntity
  8
0
100
AcDbBlockBegin
  2
RÉSZLETPONT_EGYÉB__I__RENDŰ_
 70
     0
 10
0.0
 20
0.0
 30
0.0
  3
RÉSZLETPONT_EGYÉB__I__RENDŰ_
  1

  0
TEXT
  5
204
330
1FA
100
AcDbEntity
  8
0
  6
Continuous
 62
     0
100
AcDbText
 10
0.0
 20
0.0
 30
0.0
 40
5.0
  1
>
  7
ITRW30
100
AcDbText
  0
ENDBLK
  5
205
330
1FA
100
AcDbEntity
  8
0
100
AcDbBlockEnd
  0
BLOCK
  5
206
330
1FB
100
AcDbEntity
  8
0
100
AcDbBlockBegin
  2
RÉSZLETPONT__KARÓ_
 70
     0
 10
0.0
 20
0.0
 30
0.0
  3
RÉSZLETPONT__KARÓ_
  1

  0
CIRCLE
  5
207
330
1FB
100
AcDbEntity
  8
0
  6
Continuous
 62
     0
100
AcDbCircle
 10
0.0
 20
0.0
 30
0.0
 40
0.1
  0
CIRCLE
  5
208
330
1FB
100
AcDbEntity
  8
0
  6
Continuous
 62
     0
100
AcDbCircle
 10
0.0
 20
0.0
 30
0.0
 40
0.0
  0
CIRCLE
  5
209
330
1FB
100
AcDbEntity
  8
0
  6
Continuous
 62
     0
100
AcDbCircle
 10
0.0
 20
0.0
 30
0.0
 40
0.01
  0
LINE
  5
20A
330
1FB
100
AcDbEntity
  8
0
  6
Continuous
 62
     0
100
AcDbLine
 10
0.0
 20
0.1
 30
0.0
 11
0.0
 21
0.2
 31
0.0
  0
ENDBLK
  5
20B
330
1FB
100
AcDbEntity
  8
0
100
AcDbBlockEnd
  0
BLOCK
  5
20C
330
1FC
100
AcDbEntity
  8
0
100
AcDbBlockBegin
  2
FELMÉRÉSI_AP__KŐ
 70
     0
 10
0.0
 20
0.0
 30
0.0
  3
FELMÉRÉSI_AP__KŐ
  1

  0
TEXT
  5
20D
330
1FC
100
AcDbEntity
  8
0
  6
Continuous
 62
     0
100
AcDbText
 10
0.0
 20
0.0
 30
0.0
 40
5.0
  1
0
  7
ITRW16
100
AcDbText
  0
ENDBLK
  5
20E
330
1FC
100
AcDbEntity
  8
0
100
AcDbBlockEnd
  0
BLOCK
  5
20F
330
1FD
100
AcDbEntity
  8
0
100
AcDbBlockBegin
  2
ESÉSTÜSKE
 70
     0
 10
0.0
 20
0.0
 30
0.0
  3
ESÉSTÜSKE
  1

  0
TEXT
  5
210
330
1FD
100
AcDbEntity
  8
0
  6
Continuous
 62
     0
100
AcDbText
 10
0.0
 20
0.0
 30
0.0
 40
5.0
  1
Š
  7
ITRW105
100
AcDbText
  0
ENDBLK
  5
211
330
1FD
100
AcDbEntity
  8
0
100
AcDbBlockEnd
  0
BLOCK
  5
212
330
1FE
100
AcDbEntity
  8
0
100
AcDbBlockBegin
  2
ELEKTROMOS_VEZ__NYILAI
 70
     0
 10
0.0
 20
0.0
 30
0.0
  3
ELEKTROMOS_VEZ__NYILAI
  1

  0
TEXT
  5
213
330
1FE
100
AcDbEntity
  8
0
  6
Continuous
 62
     0
100
AcDbText
 10
0.0
 20
0.0
 30
0.0
 40
5.0
  1
t
  7
ITRW83
100
AcDbText
  0
ENDBLK
  5
214
330
1FE
100
AcDbEntity
  8
0
100
AcDbBlockEnd
  0
ENDSEC
  0
SECTION
  2
ENTITIES
  0
POINT
  5
215
330
1F8
100
AcDbEntity
  8
PONT
100
AcDbPoint
 10
647807.01
 20
223073.62
 30
98.73800000000001
  0
POINT
  5
216
330
1F8
100
AcDbEntity
  8
PONT
100
AcDbPoint
 10
647839.2099999999
 20
223046.39
 30
98.94
  0
POINT
  5
217
330
1F8
100
AcDbEntity
  8
PONT
100
AcDbPoint
 10
647827.11
 20
223033.08
 30
99.176
  0
POINT
  5
218
330
1F8
100
AcDbEntity
  8
PONT
100
AcDbPoint
 10
647818.4500000001
 20
223023.47
 30
99.48999999999999
  0
POINT
  5
219
330
1F8
100
AcDbEntity
  8
PONT
100
AcDbPoint
 10
647809.72
 20
223012.8800000001
 30
99.53800000000001
  0
POINT
  5
21A
330
1F8
100
AcDbEntity
  8
PONT
100
AcDbPoint
 10
647813.6000000001
 20
223007.48
 30
100.103
  0
POINT
  5
21B
330
1F8
100
AcDbEntity
  8
PONT
100
AcDbPoint
 10
647599.11
 20
223034.62
 30
99.173
  0
POINT
  5
21C
330
1F8
100
AcDbEntity
  8
PONT
100
AcDbPoint
 10
647651.24
 20
222984.24
 30
99.174
  0
POINT
  5
21D
330
1F8
100
AcDbEntity
  8
PONT
100
AcDbPoint
 10
647724.06
 20
222899.77
 30
100.3
  0
POINT
  5
21E
330
1F8
100
AcDbEntity
  8
PONT
100
AcDbPoint
 10
647721.31
 20
222896.75
 30
99.578
  0
POINT
  5
21F
330
1F8
100
AcDbEntity
  8
PONT
100
AcDbPoint
 10
647716.27
 20
222891.81
 30
99.58899999999999
  0
POINT
  5
220
330
1F8
100
AcDbEntity
  8
PONT
100
AcDbPoint
 10
647720.53
 20
222917.41
 30
99.49899999999999
  0
POINT
  5
221
330
1F8
100
AcDbEntity
  8
PONT
100
AcDbPoint
 10
647717.47
 20
222918.44
 30
99.243
  0
POINT
  5
222
330
1F8
100
AcDbEntity
  8
PONT
100
AcDbPoint
 10
647731.16
 20
222927.17
 30
99.487
  0
POINT
  5
223
330
1F8
100
AcDbEntity
  8
PONT
100
AcDbPoint
 10
647786.62
 20
222978.81
 30
99.335
  0
POINT
  5
224
330
1F8
100
AcDbEntity
  8
PONT
100
AcDbPoint
 10
647791.3499999999
 20
222983.1
 30
99.54399999999999
  0
POINT
  5
225
330
1F8
100
AcDbEntity
  8
PONT
100
AcDbPoint
 10
647787.43
 20
222995.52
 30
99.229
  0
POINT
  5
226
330
1F8
100
AcDbEntity
  8
PONT
100
AcDbPoint
 10
647768.92
 20
222980.78
 30
98.84199999999999
  0
POINT
  5
227
330
1F8
100
AcDbEntity
  8
PONT
100
AcDbPoint
 10
647748.09
 20
222963.96
 30
98.907
  0
POINT
  5
228
330
1F8
100
AcDbEntity
  8
PONT
100
AcDbPoint
 10
647730.5699999999
 20
222948.93
 30
98.97
  0
POINT
  5
229
330
1F8
100
AcDbEntity
  8
PONT
100
AcDbPoint
 10
647703.8900000001
 20
222934.79
 30
98.999
  0
POINT
  5
22A
330
1F8
100
AcDbEntity
  8
PONT
100
AcDbPoint
 10
647685.0699999999
 20
222951.95
 30
99.113
  0
POINT
  5
22B
330
1F8
100
AcDbEntity
  8
PONT
100
AcDbPoint
 10
647701.98
 20
222966.79
 30
99.28
  0
POINT
  5
22C
330
1F8
100
AcDbEntity
  8
PONT
100
AcDbPoint
 10
647718.3100000001
 20
222982.36
 30
99.04099999999999
  0
POINT
  5
22D
330
1F8
100
AcDbEntity
  8
PONT
100
AcDbPoint
 10
647799.66
 20
223002.65
 30
99.21800000000001
  0
POINT
  5
22E
330
1F8
100
AcDbEntity
  8
PONT
100
AcDbPoint
 10
647736.97
 20
223001.77
 30
98.68999999999999
  0
POINT
  5
22F
330
1F8
100
AcDbEntity
  8
PONT
100
AcDbPoint
 10
647759.26
 20
223024.4
 30
99.014
  0
POINT
  5
230
330
1F8
100
AcDbEntity
  8
PONT
100
AcDbPoint
 10
647779.08
 20
223044.36
 30
99.27500000000001
  0
POINT
  5
231
330
1F8
100
AcDbEntity
  8
PONT
100
AcDbPoint
 10
647798.0400000001
 20
223063.75
 30
99.08799999999999
  0
POINT
  5
232
330
1F8
100
AcDbEntity
  8
PONT
100
AcDbPoint
 10
647780.5100000001
 20
223100.33
 30
98.65300000000001
  0
POINT
  5
233
330
1F8
100
AcDbEntity
  8
PONT
100
AcDbPoint
 10
647760.0999999999
 20
223080.77
 30
99.291
  0
POINT
  5
234
330
1F8
100
AcDbEntity
  8
PONT
100
AcDbPoint
 10
647735.2900000001
 20
223057.94
 30
98.84999999999999
  0
POINT
  5
235
330
1F8
100
AcDbEntity
  8
PONT
100
AcDbPoint
 10
647712.68
 20
223035.86
 30
99.01900000000001
  0
POINT
  5
236
330
1F8
100
AcDbEntity
  8
PONT
100
AcDbPoint
 10
647714.35
 20
223026.02
 30
98.77
  0
POINT
  5
237
330
1F8
100
AcDbEntity
  8
PONT
100
AcDbPoint
 10
647694.64
 20
223021.58
 30
99.243
  0
POINT
  5
238
330
1F8
100
AcDbEntity
  8
PONT
100
AcDbPoint
 10
647669.58
 20
223000.66
 30
99.395
  0
POINT
  5
239
330
1F8
100
AcDbEntity
  8
PONT
100
AcDbPoint
 10
647625.33
 20
223009.55
 30
99.01000000000001
  0
POINT
  5
23A
330
1F8
100
AcDbEntity
  8
PONT
100
AcDbPoint
 10
647645.2400000001
 20
223032.33
 30
99.11100000000001
  0
POINT
  5
23B
330
1F8
100
AcDbEntity
  8
PONT
100
AcDbPoint
 10
647667.55
 20
223057.76
 30
99.25400000000001
  0
POINT
  5
23C
330
1F8
100
AcDbEntity
  8
PONT
100
AcDbPoint
 10
647689.5
 20
223078.52
 30
99.16200000000001
  0
POINT
  5
23D
330
1F8
100
AcDbEntity
  8
PONT
100
AcDbPoint
 10
647711.01
 20
223099.89
 30
98.985
  0
POINT
  5
23E
330
1F8
100
AcDbEntity
  8
PONT
100
AcDbPoint
 10
647706.07
 20
223114.24
 30
99.249
  0
POINT
  5
23F
330
1F8
100
AcDbEntity
  8
PONT
100
AcDbPoint
 10
647709.4100000001
 20
223121.84
 30
98.87900000000001
  0
POINT
  5
240
330
1F8
100
AcDbEntity
  8
PONT
100
AcDbPoint
 10
647716.17
 20
223128.81
 30
99.327
  0
POINT
  5
241
330
1F8
100
AcDbEntity
  8
PONT
100
AcDbPoint
 10
647729.3800000001
 20
223122.85
 30
99.33100000000001
  0
POINT
  5
242
330
1F8
100
AcDbEntity
  8
PONT
100
AcDbPoint
 10
647740.9900000001
 20
223133.92
 30
98.94100000000001
  0
POINT
  5
243
330
1F8
100
AcDbEntity
  8
PONT
100
AcDbPoint
 10
647713.35
 20
223161.86
 30
99.07899999999999
  0
POINT
  5
244
330
1F8
100
AcDbEntity
  8
PONT
100
AcDbPoint
 10
647697.5899999999
 20
223147.28
 30
99.13800000000001
  0
POINT
  5
245
330
1F8
100
AcDbEntity
  8
PONT
100
AcDbPoint
 10
647691.97
 20
223141.38
 30
98.84399999999999
  0
POINT
  5
246
330
1F8
100
AcDbEntity
  8
PONT
100
AcDbPoint
 10
647685.36
 20
223134.86
 30
99.16400000000001
  0
POINT
  5
247
330
1F8
100
AcDbEntity
  8
PONT
100
AcDbPoint
 10
647666.7400000001
 20
223116.81
 30
99.306
  0
POINT
  5
248
330
1F8
100
AcDbEntity
  8
PONT
100
AcDbPoint
 10
647649.1899999999
 20
223100.03
 30
99.21700000000001
  0
POINT
  5
249
330
1F8
100
AcDbEntity
  8
PONT
100
AcDbPoint
 10
647634.2800000001
 20
223086.49
 30
99.14000000000001
  0
POINT
  5
24A
330
1F8
100
AcDbEntity
  8
PONT
100
AcDbPoint
 10
647626.08
 20
223074.61
 30
98.99500000000001
  0
POINT
  5
24B
330
1F8
100
AcDbEntity
  8
PONT
100
AcDbPoint
 10
647613.76
 20
223055.54
 30
98.99700000000001
  0
POINT
  5
24C
330
1F8
100
AcDbEntity
  8
PONT
100
AcDbPoint
 10
647557.15
 20
223075.14
 30
0.0
  0
POINT
  5
24D
330
1F8
100
AcDbEntity
  8
PONT
100
AcDbPoint
 10
647539.9
 20
223091.79
 30
0.0
  0
POINT
  5
24E
330
1F8
100
AcDbEntity
  8
PONT
100
AcDbPoint
 10
647599.19
 20
223034.51
 30
99.17000000000001
  0
POINT
  5
24F
330
1F8
100
AcDbEntity
  8
PONT
100
AcDbPoint
 10
647720.4799999999
 20
222917.28
 30
0.0
  0
POINT
  5
250
330
1F8
100
AcDbEntity
  8
PONT
100
AcDbPoint
 10
647566.8299999999
 20
223086.04
 30
0.0
  0
POINT
  5
251
330
1F8
100
AcDbEntity
  8
PONT
100
AcDbPoint
 10
647947.73
 20
223163.24
 30
0.0
  0
POINT
  5
252
330
1F8
100
AcDbEntity
  8
PONT
100
AcDbPoint
 10
647879.0700000001
 20
223099.26
 30
0.0
  0
POINT
  5
253
330
1F8
100
AcDbEntity
  8
PONT
100
AcDbPoint
 10
647845.9300000001
 20
223033.85
 30
99.55
  0
POINT
  5
254
330
1F8
100
AcDbEntity
  8
PONT
100
AcDbPoint
 10
647713.33
 20
223162.0
 30
99.08000000000001
  0
POINT
  5
255
330
1F8
100
AcDbEntity
  8
PONT
100
AcDbPoint
 10
647846.6400000001
 20
223034.51
 30
0.0
  0
POINT
  5
256
330
1F8
100
AcDbEntity
  8
PONT
100
AcDbPoint
 10
647871.59
 20
223057.72
 30
0.0
  0
POINT
  5
257
330
1F8
100
AcDbEntity
  8
PONT
100
AcDbPoint
 10
647947.73
 20
223115.44
 30
0.0
  0
POINT
  5
258
330
1F8
100
AcDbEntity
  8
PONT
100
AcDbPoint
 10
647936.8100000001
 20
223105.01
 30
0.0
  0
POINT
  5
259
330
1F8
100
AcDbEntity
  8
PONT
100
AcDbPoint
 10
647881.49
 20
223052.01
 30
0.0
  0
POINT
  5
25A
330
1F8
100
AcDbEntity
  8
PONT
100
AcDbPoint
 10
647877.5200000001
 20
223048.22
 30
0.0
  0
POINT
  5
25B
330
1F8
100
AcDbEntity
  8
PONT
100
AcDbPoint
 10
647872.4699999999
 20
223043.4
 30
0.0
  0
POINT
  5
25C
330
1F8
100
AcDbEntity
  8
PONT
100
AcDbPoint
 10
647871.21
 20
223042.47
 30
0.0
  0
POINT
  5
25D
330
1F8
100
AcDbEntity
  8
PONT
100
AcDbPoint
 10
647867.7800000001
 20
223038.92
 30
0.0
  0
POINT
  5
25E
330
1F8
100
AcDbEntity
  8
PONT
100
AcDbPoint
 10
647863.2800000001
 20
223034.63
 30
0.0
  0
POINT
  5
25F
330
1F8
100
AcDbEntity
  8
PONT
100
AcDbPoint
 10
647832.6600000001
 20
223005.38
 30
0.0
  0
POINT
  5
260
330
1F8
100
AcDbEntity
  8
PONT
100
AcDbPoint
 10
647833.1200000001
 20
223005.81
 30
0.0
  0
POINT
  5
261
330
1F8
100
AcDbEntity
  8
PONT
100
AcDbPoint
 10
647858.7800000001
 20
223030.32
 30
0.0
  0
POINT
  5
262
330
1F8
100
AcDbEntity
  8
PONT
100
AcDbPoint
 10
647851.03
 20
223022.92
 30
0.0
  0
POINT
  5
263
330
1F8
100
AcDbEntity
  8
PONT
100
AcDbPoint
 10
647860.56
 20
223032.27
 30
0.0
  0
POINT
  5
264
330
1F8
100
AcDbEntity
  8
PONT
100
AcDbPoint
 10
647849.9499999999
 20
223021.98
 30
0.0
  0
POINT
  5
265
330
1F8
100
AcDbEntity
  8
PONT
100
AcDbPoint
 10
647836.72
 20
223009.25
 30
0.0
  0
POINT
  5
266
330
1F8
100
AcDbEntity
  8
PONT
100
AcDbPoint
 10
647833.5699999999
 20
223006.25
 30
0.0
  0
POINT
  5
267
330
1F8
100
AcDbEntity
  8
PONT
100
AcDbPoint
 10
647839.48
 20
223011.96
 30
0.0
  0
POINT
  5
268
330
1F8
100
AcDbEntity
  8
PONT
100
AcDbPoint
 10
647840.94
 20
223013.28
 30
0.0
  0
POINT
  5
269
330
1F8
100
AcDbEntity
  8
PONT
100
AcDbPoint
 10
647828.7299999999
 20
223001.71
 30
0.0
  0
POINT
  5
26A
330
1F8
100
AcDbEntity
  8
PONT
100
AcDbPoint
 10
647882.06
 20
223052.77
 30
0.0
  0
POINT
  5
26B
330
1F8
100
AcDbEntity
  8
PONT
100
AcDbPoint
 10
647880.3899999999
 20
223065.91
 30
0.0
  0
POINT
  5
26C
330
1F8
100
AcDbEntity
  8
PONT
100
AcDbPoint
 10
647743.71
 20
223198.0
 30
0.0
  0
POINT
  5
26D
330
1F8
100
AcDbEntity
  8
PONT
100
AcDbPoint
 10
647804.8199999999
 20
223030.92
 30
99.594
  0
POINT
  5
26E
330
1F8
100
AcDbEntity
  8
PONT
100
AcDbPoint
 10
647837.54
 20
223019.43
 30
99.999
  0
POINT
  5
26F
330
1F8
100
AcDbEntity
  8
PONT
100
AcDbPoint
 10
647813.47
 20
222997.23
 30
100.059
  0
POINT
  5
270
330
1F8
100
AcDbEntity
  8
PONT
100
AcDbPoint
 10
647867.1099999999
 20
223061.65
 30
99.402
  0
POINT
  5
271
330
1F8
100
AcDbEntity
  8
PONT
100
AcDbPoint
 10
647769.5699999999
 20
222969.57
 30
99.091
  0
POINT
  5
272
330
1F8
100
AcDbEntity
  8
PONT
100
AcDbPoint
 10
647926.2099999999
 20
223094.72
 30
0.0
  0
POINT
  5
273
330
1F8
100
AcDbEntity
  8
PONT
100
AcDbPoint
 10
647947.73
 20
223128.55
 30
0.0
  0
POINT
  5
274
330
1F8
100
AcDbEntity
  8
PONT
100
AcDbPoint
 10
647892.21
 20
223062.92
 30
0.0
  0
POINT
  5
275
330
1F8
100
AcDbEntity
  8
PONT
100
AcDbPoint
 10
647903.42
 20
223073.54
 30
0.0
  0
POINT
  5
276
330
1F8
100
AcDbEntity
  8
PONT
100
AcDbPoint
 10
647914.49
 20
223083.92
 30
0.0
  0
POINT
  5
277
330
1F8
100
AcDbEntity
  8
PONT
100
AcDbPoint
 10
647925.5999999999
 20
223094.17
 30
0.0
  0
POINT
  5
278
330
1F8
100
AcDbEntity
  8
PONT
100
AcDbPoint
 10
647840.2599999999
 20
223013.11
 30
100.002
  0
POINT
  5
279
330
1F8
100
AcDbEntity
  8
PONT
100
AcDbPoint
 10
647829.39
 20
223002.48
 30
0.0
  0
POINT
  5
27A
330
1F8
100
AcDbEntity
  8
PONT
100
AcDbPoint
 10
647825.5799999999
 20
223006.38
 30
100.318
  0
POINT
  5
27B
330
1F8
100
AcDbEntity
  8
PONT
100
AcDbPoint
 10
647820.89
 20
223002.1
 30
100.253
  0
POINT
  5
27C
330
1F8
100
AcDbEntity
  8
PONT
100
AcDbPoint
 10
647824.86
 20
222998.04
 30
0.0
  0
POINT
  5
27D
330
1F8
100
AcDbEntity
  8
PONT
100
AcDbPoint
 10
647848.1400000001
 20
223032.02
 30
99.67100000000002
  0
POINT
  5
27E
330
1F8
100
AcDbEntity
  8
PONT
100
AcDbPoint
 10
647947.73
 20
223135.99
 30
0.0
  0
POINT
  5
27F
330
1F8
100
AcDbEntity
  8
PONT
100
AcDbPoint
 10
647836.41
 20
223043.05
 30
0.0
  0
POINT
  5
280
330
1F8
100
AcDbEntity
  8
PONT
100
AcDbPoint
 10
647836.13
 20
223043.01
 30
99.0
  0
POINT
  5
281
330
1F8
100
AcDbEntity
  8
PONT
100
AcDbPoint
 10
647834.39
 20
223043.9500000001
 30
0.0
  0
POINT
  5
282
330
1F8
100
AcDbEntity
  8
PONT
100
AcDbPoint
 10
647835.36
 20
223043.34
 30
0.0
  0
POINT
  5
283
330
1F8
100
AcDbEntity
  8
PONT
100
AcDbPoint
 10
647831.94
 20
223045.46
 30
0.0
  0
POINT
  5
284
330
1F8
100
AcDbEntity
  8
PONT
100
AcDbPoint
 10
647828.1600000001
 20
223048.67
 30
0.0
  0
POINT
  5
285
330
1F8
100
AcDbEntity
  8
PONT
100
AcDbPoint
 10
647824.7800000001
 20
223051.48
 30
0.0
  0
POINT
  5
286
330
1F8
100
AcDbEntity
  8
PONT
100
AcDbPoint
 10
647811.02
 20
223002.65
 30
0.0
  0
POINT
  5
287
330
1F8
100
AcDbEntity
  8
PONT
100
AcDbPoint
 10
647811.02
 20
223001.41
 30
0.0
  0
POINT
  5
288
330
1F8
100
AcDbEntity
  8
PONT
100
AcDbPoint
 10
647822.11
 20
223012.79
 30
0.0
  0
POINT
  5
289
330
1F8
100
AcDbEntity
  8
PONT
100
AcDbPoint
 10
647822.84
 20
223012.94
 30
100.0
  0
POINT
  5
28A
330
1F8
100
AcDbEntity
  8
PONT
100
AcDbPoint
 10
647820.9800000001
 20
223012.63
 30
0.0
  0
POINT
  5
28B
330
1F8
100
AcDbEntity
  8
PONT
100
AcDbPoint
 10
647819.6200000001
 20
223012.39
 30
100.0
  0
POINT
  5
28C
330
1F8
100
AcDbEntity
  8
PONT
100
AcDbPoint
 10
647808.53
 20
223011.67
 30
99.50000000000001
  0
POINT
  5
28D
330
1F8
100
AcDbEntity
  8
PONT
100
AcDbPoint
 10
647808.1
 20
223009.5
 30
0.0
  0
POINT
  5
28E
330
1F8
100
AcDbEntity
  8
PONT
100
AcDbPoint
 10
647803.5600000001
 20
223037.02
 30
99.50000000000001
  0
POINT
  5
28F
330
1F8
100
AcDbEntity
  8
PONT
100
AcDbPoint
 10
647806.5100000001
 20
223034.92
 30
0.0
  0
POINT
  5
290
330
1F8
100
AcDbEntity
  8
PONT
100
AcDbPoint
 10
647805.69
 20
223004.79
 30
0.0
  0
POINT
  5
291
330
1F8
100
AcDbEntity
  8
PONT
100
AcDbPoint
 10
647814.41
 20
223010.17
 30
100.0
  0
POINT
  5
292
330
1F8
100
AcDbEntity
  8
PONT
100
AcDbPoint
 10
647815.37
 20
223010.74
 30
0.0
  0
POINT
  5
293
330
1F8
100
AcDbEntity
  8
PONT
100
AcDbPoint
 10
647812.89
 20
223008.46
 30
100.0
  0
POINT
  5
294
330
1F8
100
AcDbEntity
  8
PONT
100
AcDbPoint
 10
647813.63
 20
223009.4
 30
0.0
  0
POINT
  5
295
330
1F8
100
AcDbEntity
  8
PONT
100
AcDbPoint
 10
647800.3000000001
 20
223066.23
 30
99.0
  0
POINT
  5
296
330
1F8
100
AcDbEntity
  8
PONT
100
AcDbPoint
 10
647804.4699999999
 20
223063.94
 30
0.0
  0
POINT
  5
297
330
1F8
100
AcDbEntity
  8
PONT
100
AcDbPoint
 10
647808.94
 20
223061.29
 30
0.0
  0
POINT
  5
298
330
1F8
100
AcDbEntity
  8
PONT
100
AcDbPoint
 10
647814.52
 20
223057.91
 30
0.0
  0
POINT
  5
299
330
1F8
100
AcDbEntity
  8
PONT
100
AcDbPoint
 10
647818.5100000001
 20
223055.92
 30
0.0
  0
POINT
  5
29A
330
1F8
100
AcDbEntity
  8
PONT
100
AcDbPoint
 10
647820.95
 20
223054.53
 30
0.0
  0
POINT
  5
29B
330
1F8
100
AcDbEntity
  8
PONT
100
AcDbPoint
 10
647822.52
 20
223053.43
 30
99.0
  0
POINT
  5
29C
330
1F8
100
AcDbEntity
  8
PONT
100
AcDbPoint
 10
647823.71
 20
223013.21
 30
0.0
  0
POINT
  5
29D
330
1F8
100
AcDbEntity
  8
PONT
100
AcDbPoint
 10
647811.5100000001
 20
223004.97
 30
0.0
  0
POINT
  5
29E
330
1F8
100
AcDbEntity
  8
PONT
100
AcDbPoint
 10
647811.98
 20
223006.92
 30
100.0
  0
POINT
  5
29F
330
1F8
100
AcDbEntity
  8
PONT
100
AcDbPoint
 10
647812.4300000001
 20
223007.77
 30
0.0
  0
POINT
  5
2A0
330
1F8
100
AcDbEntity
  8
PONT
100
AcDbPoint
 10
647845.38
 20
223034.88
 30
99.50000000000001
  0
POINT
  5
2A1
330
1F8
100
AcDbEntity
  8
PONT
100
AcDbPoint
 10
647843.4100000001
 20
223033.75
 30
99.50000000000001
  0
POINT
  5
2A2
330
1F8
100
AcDbEntity
  8
PONT
100
AcDbPoint
 10
647838.6800000001
 20
223031.03
 30
0.0
  0
POINT
  5
2A3
330
1F8
100
AcDbEntity
  8
PONT
100
AcDbPoint
 10
647832.7800000001
 20
223028.39
 30
0.0
  0
POINT
  5
2A4
330
1F8
100
AcDbEntity
  8
PONT
100
AcDbPoint
 10
647827.66
 20
223026.83
 30
0.0
  0
POINT
  5
2A5
330
1F8
100
AcDbEntity
  8
PONT
100
AcDbPoint
 10
647825.1
 20
223025.98
 30
0.0
  0
POINT
  5
2A6
330
1F8
100
AcDbEntity
  8
PONT
100
AcDbPoint
 10
647823.0299999999
 20
223025.2
 30
99.50000000000001
  0
POINT
  5
2A7
330
1F8
100
AcDbEntity
  8
PONT
100
AcDbPoint
 10
647820.42
 20
223024.24
 30
0.0
  0
POINT
  5
2A8
330
1F8
100
AcDbEntity
  8
PONT
100
AcDbPoint
 10
647818.54
 20
223023.26
 30
99.50000000000001
  0
POINT
  5
2A9
330
1F8
100
AcDbEntity
  8
PONT
100
AcDbPoint
 10
647817.97
 20
223022.23
 30
0.0
  0
POINT
  5
2AA
330
1F8
100
AcDbEntity
  8
PONT
100
AcDbPoint
 10
647817.38
 20
223021.34
 30
0.0
  0
POINT
  5
2AB
330
1F8
100
AcDbEntity
  8
PONT
100
AcDbPoint
 10
647816.6300000001
 20
223021.26
 30
99.50000000000001
  0
POINT
  5
2AC
330
1F8
100
AcDbEntity
  8
PONT
100
AcDbPoint
 10
647816.1599999999
 20
223021.68
 30
0.0
  0
POINT
  5
2AD
330
1F8
100
AcDbEntity
  8
PONT
100
AcDbPoint
 10
647816.49
 20
223022.83
 30
0.0
  0
POINT
  5
2AE
330
1F8
100
AcDbEntity
  8
PONT
100
AcDbPoint
 10
647817.14
 20
223024.19
 30
99.50000000000001
  0
POINT
  5
2AF
330
1F8
100
AcDbEntity
  8
PONT
100
AcDbPoint
 10
647817.23
 20
223025.13
 30
0.0
  0
POINT
  5
2B0
330
1F8
100
AcDbEntity
  8
PONT
100
AcDbPoint
 10
647815.4499999999
 20
223027.84
 30
0.0
  0
POINT
  5
2B1
330
1F8
100
AcDbEntity
  8
PONT
100
AcDbPoint
 10
647811.9599999999
 20
223030.06
 30
0.0
  0
POINT
  5
2B2
330
1F8
100
AcDbEntity
  8
PONT
100
AcDbPoint
 10
647809.8299999999
 20
223031.41
 30
99.50000000000001
  0
POINT
  5
2B3
330
1F8
100
AcDbEntity
  8
PONT
100
AcDbPoint
 10
647808.1800000001
 20
223032.81
 30
0.0
  0
POINT
  5
2B4
330
1F8
100
AcDbEntity
  8
PONT
100
AcDbPoint
 10
647800.9
 20
223026.46
 30
0.0
  0
POINT
  5
2B5
330
1F8
100
AcDbEntity
  8
PONT
100
AcDbPoint
 10
647803.36
 20
223023.69
 30
99.50000000000001
  0
POINT
  5
2B6
330
1F8
100
AcDbEntity
  8
PONT
100
AcDbPoint
 10
647804.58
 20
223021.19
 30
0.0
  0
POINT
  5
2B7
330
1F8
100
AcDbEntity
  8
PONT
100
AcDbPoint
 10
647801.39
 20
223036.71
 30
0.0
  0
POINT
  5
2B8
330
1F8
100
AcDbEntity
  8
PONT
100
AcDbPoint
 10
647798.5699999999
 20
223035.59
 30
0.0
  0
POINT
  5
2B9
330
1F8
100
AcDbEntity
  8
PONT
100
AcDbPoint
 10
647803.6
 20
223001.59
 30
99.50000000000001
  0
POINT
  5
2BA
330
1F8
100
AcDbEntity
  8
PONT
100
AcDbPoint
 10
647800.5300000001
 20
222996.7
 30
0.0
  0
POINT
  5
2BB
330
1F8
100
AcDbEntity
  8
PONT
100
AcDbPoint
 10
647853.75
 20
223026.3
 30
0.0
  0
POINT
  5
2BC
330
1F8
100
AcDbEntity
  8
PONT
100
AcDbPoint
 10
647806.4300000001
 20
223017.41
 30
0.0
  0
POINT
  5
2BD
330
1F8
100
AcDbEntity
  8
PONT
100
AcDbPoint
 10
647808.14
 20
223013.81
 30
0.0
  0
POINT
  5
2BE
330
1F8
100
AcDbEntity
  8
PONT
100
AcDbPoint
 10
647808.9699999999
 20
222982.76
 30
0.0
  0
POINT
  5
2BF
330
1F8
100
AcDbEntity
  8
PONT
100
AcDbPoint
 10
647806.95
 20
222980.94
 30
0.0
  0
POINT
  5
2C0
330
1F8
100
AcDbEntity
  8
PONT
100
AcDbPoint
 10
647822.56
 20
222995.74
 30
0.0
  0
POINT
  5
2C1
330
1F8
100
AcDbEntity
  8
PONT
100
AcDbPoint
 10
647819.2800000001
 20
222992.6
 30
0.0
  0
POINT
  5
2C2
330
1F8
100
AcDbEntity
  8
PONT
100
AcDbPoint
 10
647818.34
 20
222991.7
 30
0.0
  0
POINT
  5
2C3
330
1F8
100
AcDbEntity
  8
PONT
100
AcDbPoint
 10
647813.82
 20
222987.39
 30
0.0
  0
POINT
  5
2C4
330
1F8
100
AcDbEntity
  8
PONT
100
AcDbPoint
 10
647817.6999999999
 20
222991.1
 30
0.0
  0
POINT
  5
2C5
330
1F8
100
AcDbEntity
  8
PONT
100
AcDbPoint
 10
647805.0899999999
 20
222979.05
 30
0.0
  0
POINT
  5
2C6
330
1F8
100
AcDbEntity
  8
PONT
100
AcDbPoint
 10
647800.1899999999
 20
222974.37
 30
0.0
  0
POINT
  5
2C7
330
1F8
100
AcDbEntity
  8
PONT
100
AcDbPoint
 10
647799.15
 20
222973.38
 30
0.0
  0
POINT
  5
2C8
330
1F8
100
AcDbEntity
  8
PONT
100
AcDbPoint
 10
647725.6600000001
 20
222901.01
 30
99.801
  0
POINT
  5
2C9
330
1F8
100
AcDbEntity
  8
PONT
100
AcDbPoint
 10
647811.41
 20
222999.48
 30
100.058
  0
POINT
  5
2CA
330
1F8
100
AcDbEntity
  8
PONT
100
AcDbPoint
 10
647794.2800000001
 20
222980.04
 30
99.57500000000001
  0
POINT
  5
2CB
330
1F8
100
AcDbEntity
  8
PONT
100
AcDbPoint
 10
647795.11
 20
222988.94
 30
0.0
  0
POINT
  5
2CC
330
1F8
100
AcDbEntity
  8
PONT
100
AcDbPoint
 10
647791.33
 20
222983.12
 30
0.0
  0
POINT
  5
2CD
330
1F8
100
AcDbEntity
  8
PONT
100
AcDbPoint
 10
647721.6600000001
 20
222884.66
 30
0.0
  0
POINT
  5
2CE
330
1F8
100
AcDbEntity
  8
PONT
100
AcDbPoint
 10
647711.12
 20
222893.77
 30
0.0
  0
POINT
  5
2CF
330
1F8
100
AcDbEntity
  8
PONT
100
AcDbPoint
 10
647751.9
 20
222930.38
 30
0.0
  0
POINT
  5
2D0
330
1F8
100
AcDbEntity
  8
PONT
100
AcDbPoint
 10
647763.2599999999
 20
222940.75
 30
0.0
  0
POINT
  5
2D1
330
1F8
100
AcDbEntity
  8
PONT
100
AcDbPoint
 10
647724.5500000001
 20
222905.92
 30
0.0
  0
POINT
  5
2D2
330
1F8
100
AcDbEntity
  8
PONT
100
AcDbPoint
 10
647795.49
 20
222970.07
 30
0.0
  0
POINT
  5
2D3
330
1F8
100
AcDbEntity
  8
PONT
100
AcDbPoint
 10
647796.29
 20
222970.92
 30
0.0
  0
POINT
  5
2D4
330
1F8
100
AcDbEntity
  8
PONT
100
AcDbPoint
 10
647693.1800000001
 20
222876.25
 30
0.0
  0
POINT
  5
2D5
330
1F8
100
AcDbEntity
  8
PONT
100
AcDbPoint
 10
647711.9499999999
 20
222875.41
 30
0.0
  0
POINT
  5
2D6
330
1F8
100
AcDbEntity
  8
PONT
100
AcDbPoint
 10
647736.0899999999
 20
222872.2
 30
0.0
  0
POINT
  5
2D7
330
1F8
100
AcDbEntity
  8
PONT
100
AcDbPoint
 10
647783.4900000001
 20
222959.21
 30
0.0
  0
POINT
  5
2D8
330
1F8
100
AcDbEntity
  8
PONT
100
AcDbPoint
 10
647785.42
 20
222960.99
 30
0.0
  0
POINT
  5
2D9
330
1F8
100
AcDbEntity
  8
PONT
100
AcDbPoint
 10
647688.55
 20
222871.73
 30
0.0
  0
POINT
  5
2DA
330
1F8
100
AcDbEntity
  8
PONT
100
AcDbPoint
 10
647736.7
 20
222871.73
 30
0.0
  0
POINT
  5
2DB
330
1F8
100
AcDbEntity
  8
PONT
100
AcDbPoint
 10
647740.0300000001
 20
222919.79
 30
0.0
  0
POINT
  5
2DC
330
1F8
100
AcDbEntity
  8
PONT
100
AcDbPoint
 10
647758.98
 20
222948.94
 30
99.37800000000001
  0
POINT
  5
2DD
330
1F8
100
AcDbEntity
  8
PONT
100
AcDbPoint
 10
647743.14
 20
222932.0
 30
99.32999999999999
  0
POINT
  5
2DE
330
1F8
100
AcDbEntity
  8
PONT
100
AcDbPoint
 10
647714.28
 20
222911.49
 30
0.0
  0
POINT
  5
2DF
330
1F8
100
AcDbEntity
  8
PONT
100
AcDbPoint
 10
647731.1800000001
 20
222927.23
 30
0.0
  0
POINT
  5
2E0
330
1F8
100
AcDbEntity
  8
PONT
100
AcDbPoint
 10
647786.6700000001
 20
222978.79
 30
0.0
  0
POINT
  5
2E1
330
1F8
100
AcDbEntity
  8
PONT
100
AcDbPoint
 10
647791.7900000001
 20
222966.73
 30
0.0
  0
POINT
  5
2E2
330
1F8
100
AcDbEntity
  8
PONT
100
AcDbPoint
 10
647774.46
 20
222950.99
 30
0.0
  0
POINT
  5
2E3
330
1F8
100
AcDbEntity
  8
PONT
100
AcDbPoint
 10
647720.36
 20
222952.05
 30
99.296
  0
POINT
  5
2E4
330
1F8
100
AcDbEntity
  8
PONT
100
AcDbPoint
 10
647655.45
 20
222890.98
 30
0.0
  0
POINT
  5
2E5
330
1F8
100
AcDbEntity
  8
PONT
100
AcDbPoint
 10
647670.4300000001
 20
222887.54
 30
99.50700000000001
  0
POINT
  5
2E6
330
1F8
100
AcDbEntity
  8
PONT
100
AcDbPoint
 10
647619.26
 20
223099.28
 30
99.23799999999999
  0
POINT
  5
2E7
330
1F8
100
AcDbEntity
  8
PONT
100
AcDbPoint
 10
647721.2900000001
 20
222904.67
 30
99.62099999999999
  0
POINT
  5
2E8
330
1F8
100
AcDbEntity
  8
PONT
100
AcDbPoint
 10
647718.4000000001
 20
222907.09
 30
99.502
  0
POINT
  5
2E9
330
1F8
100
AcDbEntity
  8
PONT
100
AcDbPoint
 10
647741.1400000001
 20
222934.64
 30
99.35999999999999
  0
POINT
  5
2EA
330
1F8
100
AcDbEntity
  8
PONT
100
AcDbPoint
 10
647756.48
 20
222951.08
 30
99.313
  0
POINT
  5
2EB
330
1F8
100
AcDbEntity
  8
PONT
100
AcDbPoint
 10
647774.6800000002
 20
222966.79
 30
99.455
  0
POINT
  5
2EC
330
1F8
100
AcDbEntity
  8
PONT
100
AcDbPoint
 10
647792.28
 20
222982.01
 30
99.53700000000001
  0
POINT
  5
2ED
330
1F8
100
AcDbEntity
  8
PONT
100
AcDbPoint
 10
647669.36
 20
222876.04
 30
0.0
  0
POINT
  5
2EE
330
1F8
100
AcDbEntity
  8
PONT
100
AcDbPoint
 10
647790.8000000001
 20
222984.83
 30
99.50000000000001
  0
POINT
  5
2EF
330
1F8
100
AcDbEntity
  8
PONT
100
AcDbPoint
 10
647790.2900000001
 20
222983.56
 30
0.0
  0
POINT
  5
2F0
330
1F8
100
AcDbEntity
  8
PONT
100
AcDbPoint
 10
647792.4699999999
 20
222985.74
 30
99.50000000000001
  0
POINT
  5
2F1
330
1F8
100
AcDbEntity
  8
PONT
100
AcDbPoint
 10
647791.66
 20
222985.2300000001
 30
0.0
  0
POINT
  5
2F2
330
1F8
100
AcDbEntity
  8
PONT
100
AcDbPoint
 10
647790.35
 20
222982.21
 30
0.0
  0
POINT
  5
2F3
330
1F8
100
AcDbEntity
  8
PONT
100
AcDbPoint
 10
647729.4300000001
 20
222948.47
 30
0.0
  0
POINT
  5
2F4
330
1F8
100
AcDbEntity
  8
PONT
100
AcDbPoint
 10
647729.63
 20
222949.22
 30
99.0
  0
POINT
  5
2F5
330
1F8
100
AcDbEntity
  8
PONT
100
AcDbPoint
 10
647730.0600000001
 20
222949.85
 30
0.0
  0
POINT
  5
2F6
330
1F8
100
AcDbEntity
  8
PONT
100
AcDbPoint
 10
647732.26
 20
222951.75
 30
0.0
  0
POINT
  5
2F7
330
1F8
100
AcDbEntity
  8
PONT
100
AcDbPoint
 10
647734.82
 20
222954.18
 30
0.0
  0
POINT
  5
2F8
330
1F8
100
AcDbEntity
  8
PONT
100
AcDbPoint
 10
647737.25
 20
222956.05
 30
0.0
  0
POINT
  5
2F9
330
1F8
100
AcDbEntity
  8
PONT
100
AcDbPoint
 10
647739.99
 20
222958.24
 30
0.0
  0
POINT
  5
2FA
330
1F8
100
AcDbEntity
  8
PONT
100
AcDbPoint
 10
647741.1899999999
 20
222959.57
 30
0.0
  0
POINT
  5
2FB
330
1F8
100
AcDbEntity
  8
PONT
100
AcDbPoint
 10
647741.47
 20
222960.53
 30
0.0
  0
POINT
  5
2FC
330
1F8
100
AcDbEntity
  8
PONT
100
AcDbPoint
 10
647741.46
 20
222961.11
 30
99.0
  0
POINT
  5
2FD
330
1F8
100
AcDbEntity
  8
PONT
100
AcDbPoint
 10
647741.22
 20
222961.55
 30
0.0
  0
POINT
  5
2FE
330
1F8
100
AcDbEntity
  8
PONT
100
AcDbPoint
 10
647740.1999999999
 20
222962.46
 30
0.0
  0
POINT
  5
2FF
330
1F8
100
AcDbEntity
  8
PONT
100
AcDbPoint
 10
647738.76
 20
222963.21
 30
0.0
  0
POINT
  5
300
330
1F8
100
AcDbEntity
  8
PONT
100
AcDbPoint
 10
647737.52
 20
222963.96
 30
0.0
  0
POINT
  5
301
330
1F8
100
AcDbEntity
  8
PONT
100
AcDbPoint
 10
647736.5899999999
 20
222964.67
 30
99.0
  0
POINT
  5
302
330
1F8
100
AcDbEntity
  8
PONT
100
AcDbPoint
 10
647735.51
 20
222965.64
 30
0.0
  0
POINT
  5
303
330
1F8
100
AcDbEntity
  8
PONT
100
AcDbPoint
 10
647733.97
 20
222967.24
 30
0.0
  0
POINT
  5
304
330
1F8
100
AcDbEntity
  8
PONT
100
AcDbPoint
 10
647732.26
 20
222969.1
 30
0.0
  0
POINT
  5
305
330
1F8
100
AcDbEntity
  8
PONT
100
AcDbPoint
 10
647730.36
 20
222971.72
 30
0.0
  0
POINT
  5
306
330
1F8
100
AcDbEntity
  8
PONT
100
AcDbPoint
 10
647728.9200000001
 20
222973.83
 30
0.0
  0
POINT
  5
307
330
1F8
100
AcDbEntity
  8
PONT
100
AcDbPoint
 10
647728.02
 20
222975.57
 30
0.0
  0
POINT
  5
308
330
1F8
100
AcDbEntity
  8
PONT
100
AcDbPoint
 10
647727.42
 20
222976.73
 30
99.0
  0
POINT
  5
309
330
1F8
100
AcDbEntity
  8
PONT
100
AcDbPoint
 10
647727.45
 20
222978.04
 30
0.0
  0
POINT
  5
30A
330
1F8
100
AcDbEntity
  8
PONT
100
AcDbPoint
 10
647727.8700000001
 20
222979.33
 30
0.0
  0
POINT
  5
30B
330
1F8
100
AcDbEntity
  8
PONT
100
AcDbPoint
 10
647728.59
 20
222980.2
 30
0.0
  0
POINT
  5
30C
330
1F8
100
AcDbEntity
  8
PONT
100
AcDbPoint
 10
647728.8900000001
 20
222981.29
 30
0.0
  0
POINT
  5
30D
330
1F8
100
AcDbEntity
  8
PONT
100
AcDbPoint
 10
647728.74
 20
222982.03
 30
99.0
  0
POINT
  5
30E
330
1F8
100
AcDbEntity
  8
PONT
100
AcDbPoint
 10
647728.02
 20
222982.55
 30
0.0
  0
POINT
  5
30F
330
1F8
100
AcDbEntity
  8
PONT
100
AcDbPoint
 10
647725.9700000001
 20
222983.09
 30
0.0
  0
POINT
  5
310
330
1F8
100
AcDbEntity
  8
PONT
100
AcDbPoint
 10
647723.93
 20
222983.45
 30
0.0
  0
POINT
  5
311
330
1F8
100
AcDbEntity
  8
PONT
100
AcDbPoint
 10
647722.0600000001
 20
222983.87
 30
0.0
  0
POINT
  5
312
330
1F8
100
AcDbEntity
  8
PONT
100
AcDbPoint
 10
647721.13
 20
222984.24
 30
0.0
  0
POINT
  5
313
330
1F8
100
AcDbEntity
  8
PONT
100
AcDbPoint
 10
647720.49
 20
222984.63
 30
99.0
  0
POINT
  5
314
330
1F8
100
AcDbEntity
  8
PONT
100
AcDbPoint
 10
647719.9
 20
222985.44
 30
0.0
  0
POINT
  5
315
330
1F8
100
AcDbEntity
  8
PONT
100
AcDbPoint
 10
647719.29
 20
222987.33
 30
0.0
  0
POINT
  5
316
330
1F8
100
AcDbEntity
  8
PONT
100
AcDbPoint
 10
647718.48
 20
222990.89
 30
0.0
  0
POINT
  5
317
330
1F8
100
AcDbEntity
  8
PONT
100
AcDbPoint
 10
647717.5800000001
 20
222995.58
 30
0.0
  0
POINT
  5
318
330
1F8
100
AcDbEntity
  8
PONT
100
AcDbPoint
 10
647716.68
 20
223000.1
 30
0.0
  0
POINT
  5
319
330
1F8
100
AcDbEntity
  8
PONT
100
AcDbPoint
 10
647765.99
 20
222998.18
 30
99.0
  0
POINT
  5
31A
330
1F8
100
AcDbEntity
  8
PONT
100
AcDbPoint
 10
647768.1200000001
 20
222996.25
 30
0.0
  0
POINT
  5
31B
330
1F8
100
AcDbEntity
  8
PONT
100
AcDbPoint
 10
647771.4300000001
 20
222993.24
 30
0.0
  0
POINT
  5
31C
330
1F8
100
AcDbEntity
  8
PONT
100
AcDbPoint
 10
647774.8000000001
 20
222990.05
 30
0.0
  0
POINT
  5
31D
330
1F8
100
AcDbEntity
  8
PONT
100
AcDbPoint
 10
647776.18
 20
222987.94
 30
0.0
  0
POINT
  5
31E
330
1F8
100
AcDbEntity
  8
PONT
100
AcDbPoint
 10
647776.48
 20
222986.8
 30
99.0
  0
POINT
  5
31F
330
1F8
100
AcDbEntity
  8
PONT
100
AcDbPoint
 10
647776.4200000001
 20
222984.87
 30
0.0
  0
POINT
  5
320
330
1F8
100
AcDbEntity
  8
PONT
100
AcDbPoint
 10
647775.64
 20
222981.75
 30
0.0
  0
POINT
  5
321
330
1F8
100
AcDbEntity
  8
PONT
100
AcDbPoint
 10
647774.5899999999
 20
222980.15
 30
99.0
  0
POINT
  5
322
330
1F8
100
AcDbEntity
  8
PONT
100
AcDbPoint
 10
647773.48
 20
222978.32
 30
0.0
  0
POINT
  5
323
330
1F8
100
AcDbEntity
  8
PONT
100
AcDbPoint
 10
647771.3699999999
 20
222975.49
 30
0.0
  0
POINT
  5
324
330
1F8
100
AcDbEntity
  8
PONT
100
AcDbPoint
 10
647769.33
 20
222973.67
 30
99.0
  0
POINT
  5
325
330
1F8
100
AcDbEntity
  8
PONT
100
AcDbPoint
 10
647766.44
 20
222971.52
 30
0.0
  0
POINT
  5
326
330
1F8
100
AcDbEntity
  8
PONT
100
AcDbPoint
 10
647761.32
 20
222968.39
 30
0.0
  0
POINT
  5
327
330
1F8
100
AcDbEntity
  8
PONT
100
AcDbPoint
 10
647758.95
 20
222966.8
 30
99.0
  0
POINT
  5
328
330
1F8
100
AcDbEntity
  8
PONT
100
AcDbPoint
 10
647756.3899999999
 20
222965.2
 30
0.0
  0
POINT
  5
329
330
1F8
100
AcDbEntity
  8
PONT
100
AcDbPoint
 10
647752.5400000001
 20
222962.79
 30
0.0
  0
POINT
  5
32A
330
1F8
100
AcDbEntity
  8
PONT
100
AcDbPoint
 10
647750.01
 20
222961.01
 30
99.0
  0
POINT
  5
32B
330
1F8
100
AcDbEntity
  8
PONT
100
AcDbPoint
 10
647747.24
 20
222958.88
 30
0.0
  0
POINT
  5
32C
330
1F8
100
AcDbEntity
  8
PONT
100
AcDbPoint
 10
647742.5500000001
 20
222955.51
 30
0.0
  0
POINT
  5
32D
330
1F8
100
AcDbEntity
  8
PONT
100
AcDbPoint
 10
647737.73
 20
222952.36
 30
0.0
  0
POINT
  5
32E
330
1F8
100
AcDbEntity
  8
PONT
100
AcDbPoint
 10
647734.9000000001
 20
222950.55
 30
0.0
  0
POINT
  5
32F
330
1F8
100
AcDbEntity
  8
PONT
100
AcDbPoint
 10
647732.8400000001
 20
222949.12
 30
99.0
  0
POINT
  5
330
330
1F8
100
AcDbEntity
  8
PONT
100
AcDbPoint
 10
647732.1
 20
222948.57
 30
0.0
  0
POINT
  5
331
330
1F8
100
AcDbEntity
  8
PONT
100
AcDbPoint
 10
647731.74
 20
222948.12
 30
0.0
  0
POINT
  5
332
330
1F8
100
AcDbEntity
  8
PONT
100
AcDbPoint
 10
647731.3800000001
 20
222947.83
 30
99.0
  0
POINT
  5
333
330
1F8
100
AcDbEntity
  8
PONT
100
AcDbPoint
 10
647730.6899999999
 20
222947.33
 30
0.0
  0
POINT
  5
334
330
1F8
100
AcDbEntity
  8
PONT
100
AcDbPoint
 10
647730.0
 20
222947.14
 30
99.0
  0
POINT
  5
335
330
1F8
100
AcDbEntity
  8
PONT
100
AcDbPoint
 10
647729.61
 20
222947.44
 30
0.0
  0
POINT
  5
336
330
1F8
100
AcDbEntity
  8
PONT
100
AcDbPoint
 10
647729.46
 20
222947.88
 30
0.0
  0
POINT
  5
337
330
1F8
100
AcDbEntity
  8
PONT
100
AcDbPoint
 10
647666.42
 20
223198.0
 30
0.0
  0
POINT
  5
338
330
1F8
100
AcDbEntity
  8
PONT
100
AcDbPoint
 10
647726.47
 20
223198.0
 30
0.0
  0
POINT
  5
339
330
1F8
100
AcDbEntity
  8
PONT
100
AcDbPoint
 10
647797.12
 20
223031.32
 30
0.0
  0
POINT
  5
33A
330
1F8
100
AcDbEntity
  8
PONT
100
AcDbPoint
 10
647797.4399999999
 20
223029.86
 30
99.50000000000001
  0
POINT
  5
33B
330
1F8
100
AcDbEntity
  8
PONT
100
AcDbPoint
 10
647761.02
 20
223017.78
 30
0.0
  0
POINT
  5
33C
330
1F8
100
AcDbEntity
  8
PONT
100
AcDbPoint
 10
647762.8299999999
 20
223010.02
 30
0.0
  0
POINT
  5
33D
330
1F8
100
AcDbEntity
  8
PONT
100
AcDbPoint
 10
647797.7199999999
 20
223034.57
 30
99.50000000000001
  0
POINT
  5
33E
330
1F8
100
AcDbEntity
  8
PONT
100
AcDbPoint
 10
647690.53
 20
223136.53
 30
0.0
  0
POINT
  5
33F
330
1F8
100
AcDbEntity
  8
PONT
100
AcDbPoint
 10
647691.58
 20
223135.54
 30
0.0
  0
POINT
  5
340
330
1F8
100
AcDbEntity
  8
PONT
100
AcDbPoint
 10
647768.1099999999
 20
223090.68
 30
0.0
  0
POINT
  5
341
330
1F8
100
AcDbEntity
  8
PONT
100
AcDbPoint
 10
647769.41
 20
223089.69
 30
99.0
  0
POINT
  5
342
330
1F8
100
AcDbEntity
  8
PONT
100
AcDbPoint
 10
647765.7500000001
 20
223093.41
 30
0.0
  0
POINT
  5
343
330
1F8
100
AcDbEntity
  8
PONT
100
AcDbPoint
 10
647728.8699999999
 20
223146.9800000001
 30
0.0
  0
POINT
  5
344
330
1F8
100
AcDbEntity
  8
PONT
100
AcDbPoint
 10
647729.1700000001
 20
223145.87
 30
99.0
  0
POINT
  5
345
330
1F8
100
AcDbEntity
  8
PONT
100
AcDbPoint
 10
647797.14
 20
223068.25
 30
0.0
  0
POINT
  5
346
330
1F8
100
AcDbEntity
  8
PONT
100
AcDbPoint
 10
647707.3000000001
 20
223128.6
 30
0.0
  0
POINT
  5
347
330
1F8
100
AcDbEntity
  8
PONT
100
AcDbPoint
 10
647704.32
 20
223132.47
 30
0.0
  0
POINT
  5
348
330
1F8
100
AcDbEntity
  8
PONT
100
AcDbPoint
 10
647701.3000000001
 20
223135.74
 30
0.0
  0
POINT
  5
349
330
1F8
100
AcDbEntity
  8
PONT
100
AcDbPoint
 10
647699.79
 20
223137.32
 30
99.0
  0
POINT
  5
34A
330
1F8
100
AcDbEntity
  8
PONT
100
AcDbPoint
 10
647698.3199999999
 20
223139.11
 30
0.0
  0
POINT
  5
34B
330
1F8
100
AcDbEntity
  8
PONT
100
AcDbPoint
 10
647696.7400000001
 20
223141.34
 30
0.0
  0
POINT
  5
34C
330
1F8
100
AcDbEntity
  8
PONT
100
AcDbPoint
 10
647771.4900000001
 20
223088.28
 30
0.0
  0
POINT
  5
34D
330
1F8
100
AcDbEntity
  8
PONT
100
AcDbPoint
 10
647775.6500000001
 20
223084.66
 30
0.0
  0
POINT
  5
34E
330
1F8
100
AcDbEntity
  8
PONT
100
AcDbPoint
 10
647778.78
 20
223081.44
 30
0.0
  0
POINT
  5
34F
330
1F8
100
AcDbEntity
  8
PONT
100
AcDbPoint
 10
647781.96
 20
223078.59
 30
0.0
  0
POINT
  5
350
330
1F8
100
AcDbEntity
  8
PONT
100
AcDbPoint
 10
647784.79
 20
223077.01
 30
99.0
  0
POINT
  5
351
330
1F8
100
AcDbEntity
  8
PONT
100
AcDbPoint
 10
647759.28
 20
223022.72
 30
0.0
  0
POINT
  5
352
330
1F8
100
AcDbEntity
  8
PONT
100
AcDbPoint
 10
647788.1400000001
 20
223075.29
 30
0.0
  0
POINT
  5
353
330
1F8
100
AcDbEntity
  8
PONT
100
AcDbPoint
 10
647792.86
 20
223071.59
 30
0.0
  0
POINT
  5
354
330
1F8
100
AcDbEntity
  8
PONT
100
AcDbPoint
 10
647764.75
 20
223000.34
 30
0.0
  0
POINT
  5
355
330
1F8
100
AcDbEntity
  8
PONT
100
AcDbPoint
 10
647763.6700000001
 20
223004.67
 30
0.0
  0
POINT
  5
356
330
1F8
100
AcDbEntity
  8
PONT
100
AcDbPoint
 10
647695.9599999999
 20
223142.59
 30
0.0
  0
POINT
  5
357
330
1F8
100
AcDbEntity
  8
PONT
100
AcDbPoint
 10
647693.9100000001
 20
223133.31
 30
0.0
  0
POINT
  5
358
330
1F8
100
AcDbEntity
  8
PONT
100
AcDbPoint
 10
647696.59
 20
223130.53
 30
0.0
  0
POINT
  5
359
330
1F8
100
AcDbEntity
  8
PONT
100
AcDbPoint
 10
647698.7700000001
 20
223128.0
 30
0.0
  0
POINT
  5
35A
330
1F8
100
AcDbEntity
  8
PONT
100
AcDbPoint
 10
647699.2
 20
223127.37
 30
99.0
  0
POINT
  5
35B
330
1F8
100
AcDbEntity
  8
PONT
100
AcDbPoint
 10
647700.5100000001
 20
223126.07
 30
0.0
  0
POINT
  5
35C
330
1F8
100
AcDbEntity
  8
PONT
100
AcDbPoint
 10
647702.34
 20
223123.94
 30
0.0
  0
POINT
  5
35D
330
1F8
100
AcDbEntity
  8
PONT
100
AcDbPoint
 10
647704.52
 20
223121.85
 30
0.0
  0
POINT
  5
35E
330
1F8
100
AcDbEntity
  8
PONT
100
AcDbPoint
 10
647706.95
 20
223120.12
 30
0.0
  0
POINT
  5
35F
330
1F8
100
AcDbEntity
  8
PONT
100
AcDbPoint
 10
647708.32
 20
223119.35
 30
99.0
  0
POINT
  5
360
330
1F8
100
AcDbEntity
  8
PONT
100
AcDbPoint
 10
647709.78
 20
223119.18
 30
0.0
  0
POINT
  5
361
330
1F8
100
AcDbEntity
  8
PONT
100
AcDbPoint
 10
647710.8199999999
 20
223119.18
 30
0.0
  0
POINT
  5
362
330
1F8
100
AcDbEntity
  8
PONT
100
AcDbPoint
 10
647713.45
 20
223119.92
 30
0.0
  0
POINT
  5
363
330
1F8
100
AcDbEntity
  8
PONT
100
AcDbPoint
 10
647714.69
 20
223121.26
 30
0.0
  0
POINT
  5
364
330
1F8
100
AcDbEntity
  8
PONT
100
AcDbPoint
 10
647714.7600000001
 20
223122.11
 30
99.0
  0
POINT
  5
365
330
1F8
100
AcDbEntity
  8
PONT
100
AcDbPoint
 10
647714.44
 20
223122.85
 30
0.0
  0
POINT
  5
366
330
1F8
100
AcDbEntity
  8
PONT
100
AcDbPoint
 10
647713.5500000001
 20
223123.04
 30
0.0
  0
POINT
  5
367
330
1F8
100
AcDbEntity
  8
PONT
100
AcDbPoint
 10
647712.46
 20
223123.09
 30
0.0
  0
POINT
  5
368
330
1F8
100
AcDbEntity
  8
PONT
100
AcDbPoint
 10
647711.24
 20
223123.72
 30
99.0
  0
POINT
  5
369
330
1F8
100
AcDbEntity
  8
PONT
100
AcDbPoint
 10
647710.37
 20
223124.38
 30
0.0
  0
POINT
  5
36A
330
1F8
100
AcDbEntity
  8
PONT
100
AcDbPoint
 10
647709.3299999999
 20
223126.02
 30
0.0
  0
POINT
  5
36B
330
1F8
100
AcDbEntity
  8
PONT
100
AcDbPoint
 10
647758.3000000001
 20
223023.42
 30
99.0
  0
POINT
  5
36C
330
1F8
100
AcDbEntity
  8
PONT
100
AcDbPoint
 10
647729.5600000001
 20
223144.42
 30
0.0
  0
POINT
  5
36D
330
1F8
100
AcDbEntity
  8
PONT
100
AcDbPoint
 10
647731.3600000001
 20
223140.75
 30
0.0
  0
POINT
  5
36E
330
1F8
100
AcDbEntity
  8
PONT
100
AcDbPoint
 10
647733.47
 20
223137.25
 30
0.0
  0
POINT
  5
36F
330
1F8
100
AcDbEntity
  8
PONT
100
AcDbPoint
 10
647735.59
 20
223134.44
 30
0.0
  0
POINT
  5
370
330
1F8
100
AcDbEntity
  8
PONT
100
AcDbPoint
 10
647737.1999999999
 20
223133.14
 30
99.0
  0
POINT
  5
371
330
1F8
100
AcDbEntity
  8
PONT
100
AcDbPoint
 10
647738.1499999999
 20
223132.61
 30
0.0
  0
POINT
  5
372
330
1F8
100
AcDbEntity
  8
PONT
100
AcDbPoint
 10
647739.2299999999
 20
223132.25
 30
99.0
  0
POINT
  5
373
330
1F8
100
AcDbEntity
  8
PONT
100
AcDbPoint
 10
647740.51
 20
223131.39
 30
0.0
  0
POINT
  5
374
330
1F8
100
AcDbEntity
  8
PONT
100
AcDbPoint
 10
647742.3100000001
 20
223128.74
 30
0.0
  0
POINT
  5
375
330
1F8
100
AcDbEntity
  8
PONT
100
AcDbPoint
 10
647743.57
 20
223126.34
 30
0.0
  0
POINT
  5
376
330
1F8
100
AcDbEntity
  8
PONT
100
AcDbPoint
 10
647744.2100000001
 20
223124.96
 30
99.0
  0
POINT
  5
377
330
1F8
100
AcDbEntity
  8
PONT
100
AcDbPoint
 10
647746.01
 20
223121.9
 30
0.0
  0
POINT
  5
378
330
1F8
100
AcDbEntity
  8
PONT
100
AcDbPoint
 10
647750.08
 20
223116.25
 30
0.0
  0
POINT
  5
379
330
1F8
100
AcDbEntity
  8
PONT
100
AcDbPoint
 10
647754.19
 20
223110.26
 30
0.0
  0
POINT
  5
37A
330
1F8
100
AcDbEntity
  8
PONT
100
AcDbPoint
 10
647759.36
 20
223103.22
 30
0.0
  0
POINT
  5
37B
330
1F8
100
AcDbEntity
  8
PONT
100
AcDbPoint
 10
647762.86
 20
223097.64
 30
0.0
  0
POINT
  5
37C
330
1F8
100
AcDbEntity
  8
PONT
100
AcDbPoint
 10
647715.66
 20
223005.51
 30
0.0
  0
POINT
  5
37D
330
1F8
100
AcDbEntity
  8
PONT
100
AcDbPoint
 10
647714.27
 20
223010.69
 30
0.0
  0
POINT
  5
37E
330
1F8
100
AcDbEntity
  8
PONT
100
AcDbPoint
 10
647713.2400000001
 20
223012.8800000001
 30
99.0
  0
POINT
  5
37F
330
1F8
100
AcDbEntity
  8
PONT
100
AcDbPoint
 10
647712.2300000001
 20
223014.3
 30
0.0
  0
POINT
  5
380
330
1F8
100
AcDbEntity
  8
PONT
100
AcDbPoint
 10
647709.94
 20
223016.64
 30
0.0
  0
POINT
  5
381
330
1F8
100
AcDbEntity
  8
PONT
100
AcDbPoint
 10
647707.23
 20
223019.29
 30
0.0
  0
POINT
  5
382
330
1F8
100
AcDbEntity
  8
PONT
100
AcDbPoint
 10
647705.49
 20
223021.64
 30
0.0
  0
POINT
  5
383
330
1F8
100
AcDbEntity
  8
PONT
100
AcDbPoint
 10
647705.0699999999
 20
223022.66
 30
0.0
  0
POINT
  5
384
330
1F8
100
AcDbEntity
  8
PONT
100
AcDbPoint
 10
647704.7699999999
 20
223023.86
 30
99.0
  0
POINT
  5
385
330
1F8
100
AcDbEntity
  8
PONT
100
AcDbPoint
 10
647704.8899999999
 20
223025.0
 30
0.0
  0
POINT
  5
386
330
1F8
100
AcDbEntity
  8
PONT
100
AcDbPoint
 10
647706.57
 20
223027.83
 30
0.0
  0
POINT
  5
387
330
1F8
100
AcDbEntity
  8
PONT
100
AcDbPoint
 10
647709.64
 20
223031.86
 30
0.0
  0
POINT
  5
388
330
1F8
100
AcDbEntity
  8
PONT
100
AcDbPoint
 10
647712.81
 20
223035.11
 30
99.0
  0
POINT
  5
389
330
1F8
100
AcDbEntity
  8
PONT
100
AcDbPoint
 10
647714.27
 20
223036.56
 30
0.0
  0
POINT
  5
38A
330
1F8
100
AcDbEntity
  8
PONT
100
AcDbPoint
 10
647715.22
 20
223038.34
 30
99.0
  0
POINT
  5
38B
330
1F8
100
AcDbEntity
  8
PONT
100
AcDbPoint
 10
647715.3000000001
 20
223040.23
 30
0.0
  0
POINT
  5
38C
330
1F8
100
AcDbEntity
  8
PONT
100
AcDbPoint
 10
647714.27
 20
223044.8
 30
0.0
  0
POINT
  5
38D
330
1F8
100
AcDbEntity
  8
PONT
100
AcDbPoint
 10
647712.4100000001
 20
223048.77
 30
0.0
  0
POINT
  5
38E
330
1F8
100
AcDbEntity
  8
PONT
100
AcDbPoint
 10
647711.08
 20
223052.5
 30
0.0
  0
POINT
  5
38F
330
1F8
100
AcDbEntity
  8
PONT
100
AcDbPoint
 10
647710.1800000001
 20
223055.81
 30
0.0
  0
POINT
  5
390
330
1F8
100
AcDbEntity
  8
PONT
100
AcDbPoint
 10
647710.1400000001
 20
223057.87
 30
99.0
  0
POINT
  5
391
330
1F8
100
AcDbEntity
  8
PONT
100
AcDbPoint
 10
647710.72
 20
223059.3
 30
0.0
  0
POINT
  5
392
330
1F8
100
AcDbEntity
  8
PONT
100
AcDbPoint
 10
647712.1100000001
 20
223062.49
 30
0.0
  0
POINT
  5
393
330
1F8
100
AcDbEntity
  8
PONT
100
AcDbPoint
 10
647713.07
 20
223065.86
 30
0.0
  0
POINT
  5
394
330
1F8
100
AcDbEntity
  8
PONT
100
AcDbPoint
 10
647713.2800000001
 20
223067.83
 30
99.0
  0
POINT
  5
395
330
1F8
100
AcDbEntity
  8
PONT
100
AcDbPoint
 10
647713.25
 20
223071.03
 30
0.0
  0
POINT
  5
396
330
1F8
100
AcDbEntity
  8
PONT
100
AcDbPoint
 10
647711.87
 20
223077.65
 30
0.0
  0
POINT
  5
397
330
1F8
100
AcDbEntity
  8
PONT
100
AcDbPoint
 10
647710.5400000001
 20
223083.6700000001
 30
0.0
  0
POINT
  5
398
330
1F8
100
AcDbEntity
  8
PONT
100
AcDbPoint
 10
647709.2800000001
 20
223089.8
 30
0.0
  0
POINT
  5
399
330
1F8
100
AcDbEntity
  8
PONT
100
AcDbPoint
 10
647708.6200000001
 20
223094.56
 30
0.0
  0
POINT
  5
39A
330
1F8
100
AcDbEntity
  8
PONT
100
AcDbPoint
 10
647708.7400000001
 20
223096.18
 30
0.0
  0
POINT
  5
39B
330
1F8
100
AcDbEntity
  8
PONT
100
AcDbPoint
 10
647709.1899999999
 20
223098.08
 30
99.0
  0
POINT
  5
39C
330
1F8
100
AcDbEntity
  8
PONT
100
AcDbPoint
 10
647709.76
 20
223099.73
 30
0.0
  0
POINT
  5
39D
330
1F8
100
AcDbEntity
  8
PONT
100
AcDbPoint
 10
647710.73
 20
223100.71
 30
99.0
  0
POINT
  5
39E
330
1F8
100
AcDbEntity
  8
PONT
100
AcDbPoint
 10
647711.8100000001
 20
223100.89
 30
99.0
  0
POINT
  5
39F
330
1F8
100
AcDbEntity
  8
PONT
100
AcDbPoint
 10
647712.65
 20
223100.15
 30
0.0
  0
POINT
  5
3A0
330
1F8
100
AcDbEntity
  8
PONT
100
AcDbPoint
 10
647713.42
 20
223098.95
 30
99.0
  0
POINT
  5
3A1
330
1F8
100
AcDbEntity
  8
PONT
100
AcDbPoint
 10
647715.36
 20
223095.88
 30
0.0
  0
POINT
  5
3A2
330
1F8
100
AcDbEntity
  8
PONT
100
AcDbPoint
 10
647720.83
 20
223089.68
 30
0.0
  0
POINT
  5
3A3
330
1F8
100
AcDbEntity
  8
PONT
100
AcDbPoint
 10
647726.9699999999
 20
223083.97
 30
0.0
  0
POINT
  5
3A4
330
1F8
100
AcDbEntity
  8
PONT
100
AcDbPoint
 10
647732.68
 20
223078.25
 30
0.0
  0
POINT
  5
3A5
330
1F8
100
AcDbEntity
  8
PONT
100
AcDbPoint
 10
647738.28
 20
223072.29
 30
0.0
  0
POINT
  5
3A6
330
1F8
100
AcDbEntity
  8
PONT
100
AcDbPoint
 10
647741.9499999999
 20
223068.08
 30
0.0
  0
POINT
  5
3A7
330
1F8
100
AcDbEntity
  8
PONT
100
AcDbPoint
 10
647743.73
 20
223065.71
 30
99.0
  0
POINT
  5
3A8
330
1F8
100
AcDbEntity
  8
PONT
100
AcDbPoint
 10
647745.3199999999
 20
223063.09
 30
0.0
  0
POINT
  5
3A9
330
1F8
100
AcDbEntity
  8
PONT
100
AcDbPoint
 10
647748.21
 20
223058.52
 30
0.0
  0
POINT
  5
3AA
330
1F8
100
AcDbEntity
  8
PONT
100
AcDbPoint
 10
647749.77
 20
223055.27
 30
0.0
  0
POINT
  5
3AB
330
1F8
100
AcDbEntity
  8
PONT
100
AcDbPoint
 10
647750.75
 20
223053.15
 30
99.0
  0
POINT
  5
3AC
330
1F8
100
AcDbEntity
  8
PONT
100
AcDbPoint
 10
647751.82
 20
223049.67
 30
0.0
  0
POINT
  5
3AD
330
1F8
100
AcDbEntity
  8
PONT
100
AcDbPoint
 10
647754.34
 20
223041.13
 30
0.0
  0
POINT
  5
3AE
330
1F8
100
AcDbEntity
  8
PONT
100
AcDbPoint
 10
647755.37
 20
223035.59
 30
0.0
  0
POINT
  5
3AF
330
1F8
100
AcDbEntity
  8
PONT
100
AcDbPoint
 10
647756.6899999999
 20
223030.36
 30
0.0
  0
POINT
  5
3B0
330
1F8
100
AcDbEntity
  8
PONT
100
AcDbPoint
 10
647757.21
 20
223027.2600000001
 30
99.0
  0
POINT
  5
3B1
330
1F8
100
AcDbEntity
  8
PONT
100
AcDbPoint
 10
647756.93
 20
223025.97
 30
0.0
  0
POINT
  5
3B2
330
1F8
100
AcDbEntity
  8
PONT
100
AcDbPoint
 10
647756.6899999999
 20
223024.94
 30
0.0
  0
POINT
  5
3B3
330
1F8
100
AcDbEntity
  8
PONT
100
AcDbPoint
 10
647756.6800000001
 20
223024.49
 30
99.0
  0
POINT
  5
3B4
330
1F8
100
AcDbEntity
  8
PONT
100
AcDbPoint
 10
647757.23
 20
223023.86
 30
0.0
  0
LINE
  5
3B5
330
1F8
100
AcDbEntity
  8
FÖLDRÉSZLET_HATÁR
  6
-
 62
   100
100
AcDbLine
 10
647557.15
 20
223075.14
 30
0.0
 11
647539.9
 21
223091.79
 31
0.0
  0
LINE
  5
3B6
330
1F8
100
AcDbEntity
  8
FÖLDRÉSZLET_HATÁR
  6
-
 62
   100
100
AcDbLine
 10
647599.19
 20
223034.51
 30
99.17000000000001
 11
647720.4799999999
 21
222917.28
 31
0.0
  0
LINE
  5
3B7
330
1F8
100
AcDbEntity
  8
FÖLDRÉSZLET_HATÁR
  6
-
 62
   100
100
AcDbLine
 10
647566.8299999999
 20
223086.04
 30
0.0
 11
647557.15
 21
223075.14
 31
0.0
  0
LINE
  5
3B8
330
1F8
100
AcDbEntity
  8
FÖLDRÉSZLET_HATÁR
  6
-
 62
   100
100
AcDbLine
 10
647557.15
 20
223075.14
 30
0.0
 11
647599.19
 21
223034.51
 31
99.17000000000001
  0
LINE
  5
3B9
330
1F8
100
AcDbEntity
  8
FÖLDRÉSZLET_HATÁR
  6
-
 62
   100
100
AcDbLine
 10
647845.9300000001
 20
223033.85
 30
99.55
 11
647713.33
 21
223162.0
 31
99.08000000000001
  0
LINE
  5
3BA
330
1F8
100
AcDbEntity
  8
FÖLDRÉSZLET_HATÁR
  6
-
 62
   100
100
AcDbLine
 10
647846.6400000001
 20
223034.51
 30
0.0
 11
647871.59
 21
223057.72
 31
0.0
  0
LINE
  5
3BB
330
1F8
100
AcDbEntity
  8
FÖLDRÉSZLET_HATÁR
  6
-
 62
   100
100
AcDbLine
 10
647881.49
 20
223052.01
 30
0.0
 11
647877.5200000001
 21
223048.22
 31
0.0
  0
LINE
  5
3BC
330
1F8
100
AcDbEntity
  8
FÖLDRÉSZLET_HATÁR
  6
-
 62
   100
100
AcDbLine
 10
647877.5200000001
 20
223048.22
 30
0.0
 11
647872.4699999999
 21
223043.4
 31
0.0
  0
LINE
  5
3BD
330
1F8
100
AcDbEntity
  8
FÖLDRÉSZLET_HATÁR
  6
-
 62
   100
100
AcDbLine
 10
647867.7800000001
 20
223038.92
 30
0.0
 11
647863.2800000001
 21
223034.63
 31
0.0
  0
LINE
  5
3BE
330
1F8
100
AcDbEntity
  8
FÖLDRÉSZLET_HATÁR
  6
-
 62
   100
100
AcDbLine
 10
647858.7800000001
 20
223030.32
 30
0.0
 11
647851.03
 21
223022.92
 31
0.0
  0
LINE
  5
3BF
330
1F8
100
AcDbEntity
  8
FÖLDRÉSZLET_HATÁR
  6
-
 62
   100
100
AcDbLine
 10
647836.72
 20
223009.25
 30
0.0
 11
647833.5699999999
 21
223006.25
 31
0.0
  0
LINE
  5
3C0
330
1F8
100
AcDbEntity
  8
FÖLDRÉSZLET_HATÁR
  6
-
 62
   100
100
AcDbLine
 10
647833.5699999999
 20
223006.25
 30
0.0
 11
647833.1200000001
 21
223005.81
 31
0.0
  0
LINE
  5
3C1
330
1F8
100
AcDbEntity
  8
FÖLDRÉSZLET_HATÁR
  6
-
 62
   100
100
AcDbLine
 10
647833.1200000001
 20
223005.81
 30
0.0
 11
647832.6600000001
 21
223005.38
 31
0.0
  0
LINE
  5
3C2
330
1F8
100
AcDbEntity
  8
FÖLDRÉSZLET_HATÁR
  6
-
 62
   100
100
AcDbLine
 10
647828.7299999999
 20
223001.71
 30
0.0
 11
647832.6600000001
 21
223005.38
 31
0.0
  0
LINE
  5
3C3
330
1F8
100
AcDbEntity
  8
FÖLDRÉSZLET_HATÁR
  6
-
 62
   100
100
AcDbLine
 10
647880.3899999999
 20
223065.91
 30
0.0
 11
647743.71
 21
223198.0
 31
0.0
  0
LINE
  5
3C4
330
1F8
100
AcDbEntity
  8
FÖLDRÉSZLET_HATÁR
  6
-
 62
   100
100
AcDbLine
 10
647880.3899999999
 20
223065.91
 30
0.0
 11
647947.73
 21
223128.55
 31
0.0
  0
LINE
  5
3C5
330
1F8
100
AcDbEntity
  8
FÖLDRÉSZLET_HATÁR
  6
-
 62
   100
100
AcDbLine
 10
647871.59
 20
223057.72
 30
0.0
 11
647880.3899999999
 21
223065.91
 31
0.0
  0
LINE
  5
3C6
330
1F8
100
AcDbEntity
  8
FÖLDRÉSZLET_HATÁR
  6
-
 62
   100
100
AcDbLine
 10
647845.9300000001
 20
223033.85
 30
99.55
 11
647846.6400000001
 21
223034.51
 31
0.0
  0
LINE
  5
3C7
330
1F8
100
AcDbEntity
  8
FÖLDRÉSZLET_HATÁR
  6
-
 62
   100
100
AcDbLine
 10
647836.72
 20
223009.25
 30
0.0
 11
647839.48
 21
223011.96
 31
0.0
  0
LINE
  5
3C8
330
1F8
100
AcDbEntity
  8
FÖLDRÉSZLET_HATÁR
  6
-
 62
   100
100
AcDbLine
 10
647839.48
 20
223011.96
 30
0.0
 11
647840.94
 21
223013.28
 31
0.0
  0
LINE
  5
3C9
330
1F8
100
AcDbEntity
  8
FÖLDRÉSZLET_HATÁR
  6
-
 62
   100
100
AcDbLine
 10
647840.94
 20
223013.28
 30
0.0
 11
647849.9499999999
 21
223021.98
 31
0.0
  0
LINE
  5
3CA
330
1F8
100
AcDbEntity
  8
FÖLDRÉSZLET_HATÁR
  6
-
 62
   100
100
AcDbLine
 10
647849.9499999999
 20
223021.98
 30
0.0
 11
647851.03
 21
223022.92
 31
0.0
  0
LINE
  5
3CB
330
1F8
100
AcDbEntity
  8
FÖLDRÉSZLET_HATÁR
  6
-
 62
   100
100
AcDbLine
 10
647858.7800000001
 20
223030.32
 30
0.0
 11
647860.56
 21
223032.27
 31
0.0
  0
LINE
  5
3CC
330
1F8
100
AcDbEntity
  8
FÖLDRÉSZLET_HATÁR
  6
-
 62
   100
100
AcDbLine
 10
647860.56
 20
223032.27
 30
0.0
 11
647863.2800000001
 21
223034.63
 31
0.0
  0
LINE
  5
3CD
330
1F8
100
AcDbEntity
  8
FÖLDRÉSZLET_HATÁR
  6
-
 62
   100
100
AcDbLine
 10
647867.7800000001
 20
223038.92
 30
0.0
 11
647871.21
 21
223042.47
 31
0.0
  0
LINE
  5
3CE
330
1F8
100
AcDbEntity
  8
FÖLDRÉSZLET_HATÁR
  6
-
 62
   100
100
AcDbLine
 10
647871.21
 20
223042.47
 30
0.0
 11
647872.4699999999
 21
223043.4
 31
0.0
  0
LINE
  5
3CF
330
1F8
100
AcDbEntity
  8
FÖLDRÉSZLET_HATÁR
  6
-
 62
   100
100
AcDbLine
 10
647881.49
 20
223052.01
 30
0.0
 11
647882.06
 21
223052.77
 31
0.0
  0
LINE
  5
3D0
330
1F8
100
AcDbEntity
  8
FÖLDRÉSZLET_HATÁR
  6
-
 62
   100
100
AcDbLine
 10
647882.06
 20
223052.77
 30
0.0
 11
647892.21
 21
223062.92
 31
0.0
  0
LINE
  5
3D1
330
1F8
100
AcDbEntity
  8
FÖLDRÉSZLET_HATÁR
  6
-
 62
   100
100
AcDbLine
 10
647892.21
 20
223062.92
 30
0.0
 11
647903.42
 21
223073.54
 31
0.0
  0
LINE
  5
3D2
330
1F8
100
AcDbEntity
  8
FÖLDRÉSZLET_HATÁR
  6
-
 62
   100
100
AcDbLine
 10
647903.42
 20
223073.54
 30
0.0
 11
647914.49
 21
223083.92
 31
0.0
  0
LINE
  5
3D3
330
1F8
100
AcDbEntity
  8
FÖLDRÉSZLET_HATÁR
  6
-
 62
   100
100
AcDbLine
 10
647914.49
 20
223083.92
 30
0.0
 11
647925.5999999999
 21
223094.17
 31
0.0
  0
LINE
  5
3D4
330
1F8
100
AcDbEntity
  8
FÖLDRÉSZLET_HATÁR
  6
-
 62
   100
100
AcDbLine
 10
647925.5999999999
 20
223094.17
 30
0.0
 11
647926.2099999999
 21
223094.72
 31
0.0
  0
LINE
  5
3D5
330
1F8
100
AcDbEntity
  8
FÖLDRÉSZLET_HATÁR
  6
-
 62
   100
100
AcDbLine
 10
647926.2099999999
 20
223094.72
 30
0.0
 11
647936.8100000001
 21
223105.01
 31
0.0
  0
LINE
  5
3D6
330
1F8
100
AcDbEntity
  8
FÖLDRÉSZLET_HATÁR
  6
-
 62
   100
100
AcDbLine
 10
647936.8100000001
 20
223105.01
 30
0.0
 11
647947.73
 21
223115.44
 31
0.0
  0
LINE
  5
3D7
330
1F8
100
AcDbEntity
  8
FÖLDRÉSZLET_HATÁR
  6
-
 62
   100
100
AcDbLine
 10
647822.56
 20
222995.74
 30
0.0
 11
647819.2800000001
 21
222992.6
 31
0.0
  0
LINE
  5
3D8
330
1F8
100
AcDbEntity
  8
FÖLDRÉSZLET_HATÁR
  6
-
 62
   100
100
AcDbLine
 10
647819.2800000001
 20
222992.6
 30
0.0
 11
647818.34
 21
222991.7
 31
0.0
  0
LINE
  5
3D9
330
1F8
100
AcDbEntity
  8
FÖLDRÉSZLET_HATÁR
  6
-
 62
   100
100
AcDbLine
 10
647813.82
 20
222987.39
 30
0.0
 11
647808.9699999999
 21
222982.76
 31
0.0
  0
LINE
  5
3DA
330
1F8
100
AcDbEntity
  8
FÖLDRÉSZLET_HATÁR
  6
-
 62
   100
100
AcDbLine
 10
647805.0899999999
 20
222979.05
 30
0.0
 11
647800.1899999999
 21
222974.37
 31
0.0
  0
LINE
  5
3DB
330
1F8
100
AcDbEntity
  8
FÖLDRÉSZLET_HATÁR
  6
-
 62
   100
100
AcDbLine
 10
647800.1899999999
 20
222974.37
 30
0.0
 11
647799.15
 21
222973.38
 31
0.0
  0
LINE
  5
3DC
330
1F8
100
AcDbEntity
  8
FÖLDRÉSZLET_HATÁR
  6
-
 62
   100
100
AcDbLine
 10
647805.0899999999
 20
222979.05
 30
0.0
 11
647806.95
 21
222980.94
 31
0.0
  0
LINE
  5
3DD
330
1F8
100
AcDbEntity
  8
FÖLDRÉSZLET_HATÁR
  6
-
 62
   100
100
AcDbLine
 10
647806.95
 20
222980.94
 30
0.0
 11
647808.9699999999
 21
222982.76
 31
0.0
  0
LINE
  5
3DE
330
1F8
100
AcDbEntity
  8
FÖLDRÉSZLET_HATÁR
  6
-
 62
   100
100
AcDbLine
 10
647813.82
 20
222987.39
 30
0.0
 11
647817.6999999999
 21
222991.1
 31
0.0
  0
LINE
  5
3DF
330
1F8
100
AcDbEntity
  8
FÖLDRÉSZLET_HATÁR
  6
-
 62
   100
100
AcDbLine
 10
647817.6999999999
 20
222991.1
 30
0.0
 11
647818.34
 21
222991.7
 31
0.0
  0
LINE
  5
3E0
330
1F8
100
AcDbEntity
  8
FÖLDRÉSZLET_HATÁR
  6
-
 62
   100
100
AcDbLine
 10
647822.56
 20
222995.74
 30
0.0
 11
647828.7299999999
 21
223001.71
 31
0.0
  0
LINE
  5
3E1
330
1F8
100
AcDbEntity
  8
FÖLDRÉSZLET_HATÁR
  6
-
 62
   100
100
AcDbLine
 10
647791.33
 20
222983.12
 30
0.0
 11
647845.9300000001
 21
223033.85
 31
99.55
  0
LINE
  5
3E2
330
1F8
100
AcDbEntity
  8
FÖLDRÉSZLET_HATÁR
  6
-
 62
   100
100
AcDbLine
 10
647721.6600000001
 20
222884.66
 30
0.0
 11
647711.12
 21
222893.77
 31
0.0
  0
LINE
  5
3E3
330
1F8
100
AcDbEntity
  8
FÖLDRÉSZLET_HATÁR
  6
-
 62
   100
100
AcDbLine
 10
647711.12
 20
222893.77
 30
0.0
 11
647724.5500000001
 21
222905.92
 31
0.0
  0
LINE
  5
3E4
330
1F8
100
AcDbEntity
  8
FÖLDRÉSZLET_HATÁR
  6
-
 62
   100
100
AcDbLine
 10
647693.1800000001
 20
222876.25
 30
0.0
 11
647711.12
 21
222893.77
 31
0.0
  0
LINE
  5
3E5
330
1F8
100
AcDbEntity
  8
FÖLDRÉSZLET_HATÁR
  6
-
 62
   100
100
AcDbLine
 10
647711.9499999999
 20
222875.41
 30
0.0
 11
647736.0899999999
 21
222872.2
 31
0.0
  0
LINE
  5
3E6
330
1F8
100
AcDbEntity
  8
FÖLDRÉSZLET_HATÁR
  6
-
 62
   100
100
AcDbLine
 10
647693.1800000001
 20
222876.25
 30
0.0
 11
647688.55
 21
222871.73
 31
0.0
  0
LINE
  5
3E7
330
1F8
100
AcDbEntity
  8
FÖLDRÉSZLET_HATÁR
  6
-
 62
   100
100
AcDbLine
 10
647736.7
 20
222871.73
 30
0.0
 11
647736.0899999999
 21
222872.2
 31
0.0
  0
LINE
  5
3E8
330
1F8
100
AcDbEntity
  8
FÖLDRÉSZLET_HATÁR
  6
-
 62
   100
100
AcDbLine
 10
647721.6600000001
 20
222884.66
 30
0.0
 11
647711.9499999999
 21
222875.41
 31
0.0
  0
LINE
  5
3E9
330
1F8
100
AcDbEntity
  8
FÖLDRÉSZLET_HATÁR
  6
-
 62
   100
100
AcDbLine
 10
647714.28
 20
222911.49
 30
0.0
 11
647693.1800000001
 21
222876.25
 31
0.0
  0
LINE
  5
3EA
330
1F8
100
AcDbEntity
  8
FÖLDRÉSZLET_HATÁR
  6
-
 62
   100
100
AcDbLine
 10
647720.4799999999
 20
222917.28
 30
0.0
 11
647714.28
 21
222911.49
 31
0.0
  0
LINE
  5
3EB
330
1F8
100
AcDbEntity
  8
FÖLDRÉSZLET_HATÁR
  6
-
 62
   100
100
AcDbLine
 10
647720.4799999999
 20
222917.28
 30
0.0
 11
647731.1800000001
 21
222927.23
 31
0.0
  0
LINE
  5
3EC
330
1F8
100
AcDbEntity
  8
FÖLDRÉSZLET_HATÁR
  6
-
 62
   100
100
AcDbLine
 10
647731.1800000001
 20
222927.23
 30
0.0
 11
647786.6700000001
 21
222978.79
 31
0.0
  0
LINE
  5
3ED
330
1F8
100
AcDbEntity
  8
FÖLDRÉSZLET_HATÁR
  6
-
 62
   100
100
AcDbLine
 10
647786.6700000001
 20
222978.79
 30
0.0
 11
647791.33
 21
222983.12
 31
0.0
  0
LINE
  5
3EE
330
1F8
100
AcDbEntity
  8
FÖLDRÉSZLET_HATÁR
  6
-
 62
   100
100
AcDbLine
 10
647795.49
 20
222970.07
 30
0.0
 11
647791.7900000001
 21
222966.73
 31
0.0
  0
LINE
  5
3EF
330
1F8
100
AcDbEntity
  8
FÖLDRÉSZLET_HATÁR
  6
-
 62
   100
100
AcDbLine
 10
647724.5500000001
 20
222905.92
 30
0.0
 11
647740.0300000001
 21
222919.79
 31
0.0
  0
LINE
  5
3F0
330
1F8
100
AcDbEntity
  8
FÖLDRÉSZLET_HATÁR
  6
-
 62
   100
100
AcDbLine
 10
647783.4900000001
 20
222959.21
 30
0.0
 11
647785.42
 21
222960.99
 31
0.0
  0
LINE
  5
3F1
330
1F8
100
AcDbEntity
  8
FÖLDRÉSZLET_HATÁR
  6
-
 62
   100
100
AcDbLine
 10
647774.46
 20
222950.99
 30
0.0
 11
647783.4900000001
 21
222959.21
 31
0.0
  0
LINE
  5
3F2
330
1F8
100
AcDbEntity
  8
FÖLDRÉSZLET_HATÁR
  6
-
 62
   100
100
AcDbLine
 10
647796.29
 20
222970.92
 30
0.0
 11
647799.15
 21
222973.38
 31
0.0
  0
LINE
  5
3F3
330
1F8
100
AcDbEntity
  8
FÖLDRÉSZLET_HATÁR
  6
-
 62
   100
100
AcDbLine
 10
647795.49
 20
222970.07
 30
0.0
 11
647796.29
 21
222970.92
 31
0.0
  0
LINE
  5
3F4
330
1F8
100
AcDbEntity
  8
FÖLDRÉSZLET_HATÁR
  6
-
 62
   100
100
AcDbLine
 10
647785.42
 20
222960.99
 30
0.0
 11
647791.7900000001
 21
222966.73
 31
0.0
  0
LINE
  5
3F5
330
1F8
100
AcDbEntity
  8
FÖLDRÉSZLET_HATÁR
  6
-
 62
   100
100
AcDbLine
 10
647763.2599999999
 20
222940.75
 30
0.0
 11
647774.46
 21
222950.99
 31
0.0
  0
LINE
  5
3F6
330
1F8
100
AcDbEntity
  8
FÖLDRÉSZLET_HATÁR
  6
-
 62
   100
100
AcDbLine
 10
647751.9
 20
222930.38
 30
0.0
 11
647763.2599999999
 21
222940.75
 31
0.0
  0
LINE
  5
3F7
330
1F8
100
AcDbEntity
  8
FÖLDRÉSZLET_HATÁR
  6
-
 62
   100
100
AcDbLine
 10
647740.0300000001
 20
222919.79
 30
0.0
 11
647751.9
 21
222930.38
 31
0.0
  0
LINE
  5
3F8
330
1F8
100
AcDbEntity
  8
FÖLDRÉSZLET_HATÁR
  6
-
 62
   100
100
AcDbLine
 10
647666.42
 20
223198.0
 30
0.0
 11
647566.8299999999
 21
223086.04
 31
0.0
  0
LINE
  5
3F9
330
1F8
100
AcDbEntity
  8
FÖLDRÉSZLET_HATÁR
  6
-
 62
   100
100
AcDbLine
 10
647726.47
 20
223198.0
 30
0.0
 11
647871.59
 21
223057.72
 31
0.0
  0
LINE
  5
3FA
330
1F8
100
AcDbEntity
  8
FÖLDRÉSZLET_HATÁR
  6
-
 62
   100
100
AcDbLine
 10
647713.33
 20
223162.0
 30
99.08000000000001
 11
647599.19
 21
223034.51
 31
99.17000000000001
  0
LINE
  5
3FB
330
1F8
100
AcDbEntity
  8
ELEKTROMOS_TÁVVEZETÉK
  6
-
 62
    12
100
AcDbLine
 10
647947.73
 20
223163.24
 30
0.0
 11
647879.0700000001
 21
223099.26
 31
0.0
  0
LINE
  5
3FC
330
1F8
100
AcDbEntity
  8
ELEKTROMOS_TÁVVEZETÉK
  6
-
 62
    12
100
AcDbLine
 10
647804.8199999999
 20
223030.92
 30
99.594
 11
647879.0700000001
 21
223099.26
 31
0.0
  0
LINE
  5
3FD
330
1F8
100
AcDbEntity
  8
ELEKTROMOS_TÁVVEZETÉK
  6
-
 62
    12
100
AcDbLine
 10
647867.1099999999
 20
223061.65
 30
99.402
 11
647769.5699999999
 21
222969.57
 31
99.091
  0
LINE
  5
3FE
330
1F8
100
AcDbEntity
  8
ELEKTROMOS_TÁVVEZETÉK
  6
-
 62
    12
100
AcDbLine
 10
647867.1099999999
 20
223061.65
 30
99.402
 11
647947.73
 21
223135.99
 31
0.0
  0
LINE
  5
3FF
330
1F8
100
AcDbEntity
  8
ELEKTROMOS_TÁVVEZETÉK
  6
-
 62
    12
100
AcDbLine
 10
647720.36
 20
222952.05
 30
99.296
 11
647804.8199999999
 21
223030.92
 31
99.594
  0
LINE
  5
400
330
1F8
100
AcDbEntity
  8
ELEKTROMOS_TÁVVEZETÉK
  6
-
 62
    12
100
AcDbLine
 10
647720.36
 20
222952.05
 30
99.296
 11
647655.45
 21
222890.98
 31
0.0
  0
LINE
  5
401
330
1F8
100
AcDbEntity
  8
ELEKTROMOS_TÁVVEZETÉK
  6
-
 62
    12
100
AcDbLine
 10
647769.5699999999
 20
222969.57
 30
99.091
 11
647669.36
 21
222876.04
 31
0.0
  0
LINE
  5
402
330
1F8
100
AcDbEntity
  8
FEKVÉSHATÁR
  6
FEKVÉSHATÁR__BELTERÜLET_
 62
     7
100
AcDbLine
 10
647947.73
 20
223115.44
 30
0.0
 11
647936.8100000001
 21
223105.01
 31
0.0
  0
LINE
  5
403
330
1F8
100
AcDbEntity
  8
FEKVÉSHATÁR
  6
FEKVÉSHATÁR__BELTERÜLET_
 62
     7
100
AcDbLine
 10
647871.21
 20
223042.47
 30
0.0
 11
647872.4699999999
 21
223043.4
 31
0.0
  0
LINE
  5
404
330
1F8
100
AcDbEntity
  8
FEKVÉSHATÁR
  6
FEKVÉSHATÁR__BELTERÜLET_
 62
     7
100
AcDbLine
 10
647832.6600000001
 20
223005.38
 30
0.0
 11
647833.1200000001
 21
223005.81
 31
0.0
  0
LINE
  5
405
330
1F8
100
AcDbEntity
  8
FEKVÉSHATÁR
  6
FEKVÉSHATÁR__BELTERÜLET_
 62
     7
100
AcDbLine
 10
647860.56
 20
223032.27
 30
0.0
 11
647863.2800000001
 21
223034.63
 31
0.0
  0
LINE
  5
406
330
1F8
100
AcDbEntity
  8
FEKVÉSHATÁR
  6
FEKVÉSHATÁR__BELTERÜLET_
 62
     7
100
AcDbLine
 10
647849.9499999999
 20
223021.98
 30
0.0
 11
647851.03
 21
223022.92
 31
0.0
  0
LINE
  5
407
330
1F8
100
AcDbEntity
  8
FEKVÉSHATÁR
  6
FEKVÉSHATÁR__BELTERÜLET_
 62
     7
100
AcDbLine
 10
647839.48
 20
223011.96
 30
0.0
 11
647840.94
 21
223013.28
 31
0.0
  0
LINE
  5
408
330
1F8
100
AcDbEntity
  8
FEKVÉSHATÁR
  6
FEKVÉSHATÁR__BELTERÜLET_
 62
     7
100
AcDbLine
 10
647828.7299999999
 20
223001.71
 30
0.0
 11
647832.6600000001
 21
223005.38
 31
0.0
  0
LINE
  5
409
330
1F8
100
AcDbEntity
  8
FEKVÉSHATÁR
  6
FEKVÉSHATÁR__BELTERÜLET_
 62
     7
100
AcDbLine
 10
647833.1200000001
 20
223005.81
 30
0.0
 11
647833.5699999999
 21
223006.25
 31
0.0
  0
LINE
  5
40A
330
1F8
100
AcDbEntity
  8
FEKVÉSHATÁR
  6
FEKVÉSHATÁR__BELTERÜLET_
 62
     7
100
AcDbLine
 10
647882.06
 20
223052.77
 30
0.0
 11
647881.49
 21
223052.01
 31
0.0
  0
LINE
  5
40B
330
1F8
100
AcDbEntity
  8
FEKVÉSHATÁR
  6
FEKVÉSHATÁR__BELTERÜLET_
 62
     7
100
AcDbLine
 10
647833.5699999999
 20
223006.25
 30
0.0
 11
647836.72
 21
223009.25
 31
0.0
  0
LINE
  5
40C
330
1F8
100
AcDbEntity
  8
FEKVÉSHATÁR
  6
FEKVÉSHATÁR__BELTERÜLET_
 62
     7
100
AcDbLine
 10
647836.72
 20
223009.25
 30
0.0
 11
647839.48
 21
223011.96
 31
0.0
  0
LINE
  5
40D
330
1F8
100
AcDbEntity
  8
FEKVÉSHATÁR
  6
FEKVÉSHATÁR__BELTERÜLET_
 62
     7
100
AcDbLine
 10
647851.03
 20
223022.92
 30
0.0
 11
647858.7800000001
 21
223030.32
 31
0.0
  0
LINE
  5
40E
330
1F8
100
AcDbEntity
  8
FEKVÉSHATÁR
  6
FEKVÉSHATÁR__BELTERÜLET_
 62
     7
100
AcDbLine
 10
647840.94
 20
223013.28
 30
0.0
 11
647849.9499999999
 21
223021.98
 31
0.0
  0
LINE
  5
40F
330
1F8
100
AcDbEntity
  8
FEKVÉSHATÁR
  6
FEKVÉSHATÁR__BELTERÜLET_
 62
     7
100
AcDbLine
 10
647863.2800000001
 20
223034.63
 30
0.0
 11
647867.7800000001
 21
223038.92
 31
0.0
  0
LINE
  5
410
330
1F8
100
AcDbEntity
  8
FEKVÉSHATÁR
  6
FEKVÉSHATÁR__BELTERÜLET_
 62
     7
100
AcDbLine
 10
647858.7800000001
 20
223030.32
 30
0.0
 11
647860.56
 21
223032.27
 31
0.0
  0
LINE
  5
411
330
1F8
100
AcDbEntity
  8
FEKVÉSHATÁR
  6
FEKVÉSHATÁR__BELTERÜLET_
 62
     7
100
AcDbLine
 10
647872.4699999999
 20
223043.4
 30
0.0
 11
647877.5200000001
 21
223048.22
 31
0.0
  0
LINE
  5
412
330
1F8
100
AcDbEntity
  8
FEKVÉSHATÁR
  6
FEKVÉSHATÁR__BELTERÜLET_
 62
     7
100
AcDbLine
 10
647936.8100000001
 20
223105.01
 30
0.0
 11
647926.2099999999
 21
223094.72
 31
0.0
  0
LINE
  5
413
330
1F8
100
AcDbEntity
  8
FEKVÉSHATÁR
  6
FEKVÉSHATÁR__BELTERÜLET_
 62
     7
100
AcDbLine
 10
647877.5200000001
 20
223048.22
 30
0.0
 11
647881.49
 21
223052.01
 31
0.0
  0
LINE
  5
414
330
1F8
100
AcDbEntity
  8
FEKVÉSHATÁR
  6
FEKVÉSHATÁR__BELTERÜLET_
 62
     7
100
AcDbLine
 10
647867.7800000001
 20
223038.92
 30
0.0
 11
647871.21
 21
223042.47
 31
0.0
  0
LINE
  5
415
330
1F8
100
AcDbEntity
  8
FEKVÉSHATÁR
  6
FEKVÉSHATÁR__BELTERÜLET_
 62
     7
100
AcDbLine
 10
647926.2099999999
 20
223094.72
 30
0.0
 11
647925.5999999999
 21
223094.17
 31
0.0
  0
LINE
  5
416
330
1F8
100
AcDbEntity
  8
FEKVÉSHATÁR
  6
FEKVÉSHATÁR__BELTERÜLET_
 62
     7
100
AcDbLine
 10
647925.5999999999
 20
223094.17
 30
0.0
 11
647914.49
 21
223083.92
 31
0.0
  0
LINE
  5
417
330
1F8
100
AcDbEntity
  8
FEKVÉSHATÁR
  6
FEKVÉSHATÁR__BELTERÜLET_
 62
     7
100
AcDbLine
 10
647914.49
 20
223083.92
 30
0.0
 11
647903.42
 21
223073.54
 31
0.0
  0
LINE
  5
418
330
1F8
100
AcDbEntity
  8
FEKVÉSHATÁR
  6
FEKVÉSHATÁR__BELTERÜLET_
 62
     7
100
AcDbLine
 10
647903.42
 20
223073.54
 30
0.0
 11
647892.21
 21
223062.92
 31
0.0
  0
LINE
  5
419
330
1F8
100
AcDbEntity
  8
FEKVÉSHATÁR
  6
FEKVÉSHATÁR__BELTERÜLET_
 62
     7
100
AcDbLine
 10
647892.21
 20
223062.92
 30
0.0
 11
647882.06
 21
223052.77
 31
0.0
  0
LINE
  5
41A
330
1F8
100
AcDbEntity
  8
FEKVÉSHATÁR
  6
FEKVÉSHATÁR__BELTERÜLET_
 62
     7
100
AcDbLine
 10
647808.9699999999
 20
222982.76
 30
0.0
 11
647806.95
 21
222980.94
 31
0.0
  0
LINE
  5
41B
330
1F8
100
AcDbEntity
  8
FEKVÉSHATÁR
  6
FEKVÉSHATÁR__BELTERÜLET_
 62
     7
100
AcDbLine
 10
647813.82
 20
222987.39
 30
0.0
 11
647817.6999999999
 21
222991.1
 31
0.0
  0
LINE
  5
41C
330
1F8
100
AcDbEntity
  8
FEKVÉSHATÁR
  6
FEKVÉSHATÁR__BELTERÜLET_
 62
     7
100
AcDbLine
 10
647818.34
 20
222991.7
 30
0.0
 11
647819.2800000001
 21
222992.6
 31
0.0
  0
LINE
  5
41D
330
1F8
100
AcDbEntity
  8
FEKVÉSHATÁR
  6
FEKVÉSHATÁR__BELTERÜLET_
 62
     7
100
AcDbLine
 10
647806.95
 20
222980.94
 30
0.0
 11
647805.0899999999
 21
222979.05
 31
0.0
  0
LINE
  5
41E
330
1F8
100
AcDbEntity
  8
FEKVÉSHATÁR
  6
FEKVÉSHATÁR__BELTERÜLET_
 62
     7
100
AcDbLine
 10
647800.1899999999
 20
222974.37
 30
0.0
 11
647805.0899999999
 21
222979.05
 31
0.0
  0
LINE
  5
41F
330
1F8
100
AcDbEntity
  8
FEKVÉSHATÁR
  6
FEKVÉSHATÁR__BELTERÜLET_
 62
     7
100
AcDbLine
 10
647817.6999999999
 20
222991.1
 30
0.0
 11
647818.34
 21
222991.7
 31
0.0
  0
LINE
  5
420
330
1F8
100
AcDbEntity
  8
FEKVÉSHATÁR
  6
FEKVÉSHATÁR__BELTERÜLET_
 62
     7
100
AcDbLine
 10
647819.2800000001
 20
222992.6
 30
0.0
 11
647822.56
 21
222995.74
 31
0.0
  0
LINE
  5
421
330
1F8
100
AcDbEntity
  8
FEKVÉSHATÁR
  6
FEKVÉSHATÁR__BELTERÜLET_
 62
     7
100
AcDbLine
 10
647808.9699999999
 20
222982.76
 30
0.0
 11
647813.82
 21
222987.39
 31
0.0
  0
LINE
  5
422
330
1F8
100
AcDbEntity
  8
FEKVÉSHATÁR
  6
FEKVÉSHATÁR__BELTERÜLET_
 62
     7
100
AcDbLine
 10
647822.56
 20
222995.74
 30
0.0
 11
647828.7299999999
 21
223001.71
 31
0.0
  0
LINE
  5
423
330
1F8
100
AcDbEntity
  8
FEKVÉSHATÁR
  6
FEKVÉSHATÁR__BELTERÜLET_
 62
     7
100
AcDbLine
 10
647751.9
 20
222930.38
 30
0.0
 11
647763.2599999999
 21
222940.75
 31
0.0
  0
LINE
  5
424
330
1F8
100
AcDbEntity
  8
FEKVÉSHATÁR
  6
FEKVÉSHATÁR__BELTERÜLET_
 62
     7
100
AcDbLine
 10
647795.49
 20
222970.07
 30
0.0
 11
647796.29
 21
222970.92
 31
0.0
  0
LINE
  5
425
330
1F8
100
AcDbEntity
  8
FEKVÉSHATÁR
  6
FEKVÉSHATÁR__BELTERÜLET_
 62
     7
100
AcDbLine
 10
647783.4900000001
 20
222959.21
 30
0.0
 11
647785.42
 21
222960.99
 31
0.0
  0
LINE
  5
426
330
1F8
100
AcDbEntity
  8
FEKVÉSHATÁR
  6
FEKVÉSHATÁR__BELTERÜLET_
 62
     7
100
AcDbLine
 10
647736.0899999999
 20
222872.2
 30
0.0
 11
647711.9499999999
 21
222875.41
 31
0.0
  0
LINE
  5
427
330
1F8
100
AcDbEntity
  8
FEKVÉSHATÁR
  6
FEKVÉSHATÁR__BELTERÜLET_
 62
     7
100
AcDbLine
 10
647736.7
 20
222871.73
 30
0.0
 11
647736.0899999999
 21
222872.2
 31
0.0
  0
LINE
  5
428
330
1F8
100
AcDbEntity
  8
FEKVÉSHATÁR
  6
FEKVÉSHATÁR__BELTERÜLET_
 62
     7
100
AcDbLine
 10
647721.6600000001
 20
222884.66
 30
0.0
 11
647711.12
 21
222893.77
 31
0.0
  0
LINE
  5
429
330
1F8
100
AcDbEntity
  8
FEKVÉSHATÁR
  6
FEKVÉSHATÁR__BELTERÜLET_
 62
     7
100
AcDbLine
 10
647711.12
 20
222893.77
 30
0.0
 11
647724.5500000001
 21
222905.92
 31
0.0
  0
LINE
  5
42A
330
1F8
100
AcDbEntity
  8
FEKVÉSHATÁR
  6
FEKVÉSHATÁR__BELTERÜLET_
 62
     7
100
AcDbLine
 10
647740.0300000001
 20
222919.79
 30
0.0
 11
647751.9
 21
222930.38
 31
0.0
  0
LINE
  5
42B
330
1F8
100
AcDbEntity
  8
FEKVÉSHATÁR
  6
FEKVÉSHATÁR__BELTERÜLET_
 62
     7
100
AcDbLine
 10
647796.29
 20
222970.92
 30
0.0
 11
647799.15
 21
222973.38
 31
0.0
  0
LINE
  5
42C
330
1F8
100
AcDbEntity
  8
FEKVÉSHATÁR
  6
FEKVÉSHATÁR__BELTERÜLET_
 62
     7
100
AcDbLine
 10
647785.42
 20
222960.99
 30
0.0
 11
647791.7900000001
 21
222966.73
 31
0.0
  0
LINE
  5
42D
330
1F8
100
AcDbEntity
  8
FEKVÉSHATÁR
  6
FEKVÉSHATÁR__BELTERÜLET_
 62
     7
100
AcDbLine
 10
647774.46
 20
222950.99
 30
0.0
 11
647783.4900000001
 21
222959.21
 31
0.0
  0
LINE
  5
42E
330
1F8
100
AcDbEntity
  8
FEKVÉSHATÁR
  6
FEKVÉSHATÁR__BELTERÜLET_
 62
     7
100
AcDbLine
 10
647711.9499999999
 20
222875.41
 30
0.0
 11
647721.6600000001
 21
222884.66
 31
0.0
  0
LINE
  5
42F
330
1F8
100
AcDbEntity
  8
FEKVÉSHATÁR
  6
FEKVÉSHATÁR__BELTERÜLET_
 62
     7
100
AcDbLine
 10
647799.15
 20
222973.38
 30
0.0
 11
647800.1899999999
 21
222974.37
 31
0.0
  0
LINE
  5
430
330
1F8
100
AcDbEntity
  8
FEKVÉSHATÁR
  6
FEKVÉSHATÁR__BELTERÜLET_
 62
     7
100
AcDbLine
 10
647724.5500000001
 20
222905.92
 30
0.0
 11
647740.0300000001
 21
222919.79
 31
0.0
  0
LINE
  5
431
330
1F8
100
AcDbEntity
  8
FEKVÉSHATÁR
  6
FEKVÉSHATÁR__BELTERÜLET_
 62
     7
100
AcDbLine
 10
647763.2599999999
 20
222940.75
 30
0.0
 11
647774.46
 21
222950.99
 31
0.0
  0
LINE
  5
432
330
1F8
100
AcDbEntity
  8
FEKVÉSHATÁR
  6
FEKVÉSHATÁR__BELTERÜLET_
 62
     7
100
AcDbLine
 10
647791.7900000001
 20
222966.73
 30
0.0
 11
647795.49
 21
222970.07
 31
0.0
  0
LINE
  5
433
330
1F8
100
AcDbEntity
  8
BURKOLAT___ÚT__JÁRDA_
  6
0_18_-_PONTSOR__0_5-0_5_
 62
   134
100
AcDbLine
 10
647837.54
 20
223019.43
 30
99.999
 11
647813.47
 21
222997.23
 31
100.059
  0
LINE
  5
434
330
1F8
100
AcDbEntity
  8
BURKOLAT___ÚT__JÁRDA_
  6
0_18_-_PONTSOR__0_5-0_5_
 62
   134
100
AcDbLine
 10
647848.1400000001
 20
223032.02
 30
99.67100000000002
 11
647837.54
 21
223019.43
 31
99.999
  0
LINE
  5
435
330
1F8
100
AcDbEntity
  8
BURKOLAT___ÚT__JÁRDA_
  6
0_18_-_PONTSOR__0_5-0_5_
 62
   134
100
AcDbLine
 10
647811.41
 20
222999.48
 30
100.058
 11
647845.9300000001
 21
223033.85
 31
99.55
  0
LINE
  5
436
330
1F8
100
AcDbEntity
  8
BURKOLAT___ÚT__JÁRDA_
  6
0_18_-_PONTSOR__0_5-0_5_
 62
   134
100
AcDbLine
 10
647813.47
 20
222997.23
 30
100.059
 11
647794.2800000001
 21
222980.04
 31
99.57500000000001
  0
LINE
  5
437
330
1F8
100
AcDbEntity
  8
BURKOLAT___ÚT__JÁRDA_
  6
0_18_-_PONTSOR__0_5-0_5_
 62
   134
100
AcDbLine
 10
647758.98
 20
222948.94
 30
99.37800000000001
 11
647743.14
 21
222932.0
 31
99.32999999999999
  0
LINE
  5
438
330
1F8
100
AcDbEntity
  8
BURKOLAT___ÚT__JÁRDA_
  6
0_18_-_PONTSOR__0_5-0_5_
 62
   134
100
AcDbLine
 10
647721.2900000001
 20
222904.67
 30
99.62099999999999
 11
647743.14
 21
222932.0
 31
99.32999999999999
  0
LINE
  5
439
330
1F8
100
AcDbEntity
  8
BURKOLAT___ÚT__JÁRDA_
  6
0_18_-_PONTSOR__0_5-0_5_
 62
   134
100
AcDbLine
 10
647718.4000000001
 20
222907.09
 30
99.502
 11
647741.1400000001
 21
222934.64
 31
99.35999999999999
  0
LINE
  5
43A
330
1F8
100
AcDbEntity
  8
BURKOLAT___ÚT__JÁRDA_
  6
0_18_-_PONTSOR__0_5-0_5_
 62
   134
100
AcDbLine
 10
647741.1400000001
 20
222934.64
 30
99.35999999999999
 11
647756.48
 21
222951.08
 31
99.313
  0
LINE
  5
43B
330
1F8
100
AcDbEntity
  8
BURKOLAT___ÚT__JÁRDA_
  6
0_18_-_PONTSOR__0_5-0_5_
 62
   134
100
AcDbLine
 10
647756.48
 20
222951.08
 30
99.313
 11
647774.6800000002
 21
222966.79
 31
99.455
  0
LINE
  5
43C
330
1F8
100
AcDbEntity
  8
BURKOLAT___ÚT__JÁRDA_
  6
0_18_-_PONTSOR__0_5-0_5_
 62
   134
100
AcDbLine
 10
647774.6800000002
 20
222966.79
 30
99.455
 11
647792.28
 21
222982.01
 31
99.53700000000001
  0
LINE
  5
43D
330
1F8
100
AcDbEntity
  8
BURKOLAT___ÚT__JÁRDA_
  6
0_18_-_PONTSOR__0_5-0_5_
 62
   134
100
AcDbLine
 10
647792.28
 20
222982.01
 30
99.53700000000001
 11
647811.41
 21
222999.48
 31
100.058
  0
LINE
  5
43E
330
1F8
100
AcDbEntity
  8
BURKOLAT___ÚT__JÁRDA_
  6
0_18_-_PONTSOR__0_5-0_5_
 62
   134
100
AcDbLine
 10
647794.2800000001
 20
222980.04
 30
99.57500000000001
 11
647758.98
 21
222948.94
 31
99.37800000000001
  0
LINE
  5
43F
330
1F8
100
AcDbEntity
  8
SZABADON_ÁLLÓ_FAL__KERÍTÉSLÁBAZ
  6
0_18_-_PONTSOR__0_5-0_5_
 62
    57
100
AcDbLine
 10
647840.2599999999
 20
223013.11
 30
100.002
 11
647829.39
 21
223002.48
 31
0.0
  0
LINE
  5
440
330
1F8
100
AcDbEntity
  8
SZABADON_ÁLLÓ_FAL__KERÍTÉSLÁBAZ
  6
0_18_-_PONTSOR__0_5-0_5_
 62
    57
100
AcDbLine
 10
647829.39
 20
223002.48
 30
0.0
 11
647825.5799999999
 21
223006.38
 31
100.318
  0
LINE
  5
441
330
1F8
100
AcDbEntity
  8
SZABADON_ÁLLÓ_FAL__KERÍTÉSLÁBAZ
  6
0_18_-_PONTSOR__0_5-0_5_
 62
    57
100
AcDbLine
 10
647825.5799999999
 20
223006.38
 30
100.318
 11
647820.89
 21
223002.1
 31
100.253
  0
LINE
  5
442
330
1F8
100
AcDbEntity
  8
SZABADON_ÁLLÓ_FAL__KERÍTÉSLÁBAZ
  6
0_18_-_PONTSOR__0_5-0_5_
 62
    57
100
AcDbLine
 10
647820.89
 20
223002.1
 30
100.253
 11
647824.86
 21
222998.04
 31
0.0
  0
LINE
  5
443
330
1F8
100
AcDbEntity
  8
SZABADON_ÁLLÓ_FAL__KERÍTÉSLÁBAZ
  6
0_18_-_PONTSOR__0_5-0_5_
 62
    57
100
AcDbLine
 10
647853.75
 20
223026.3
 30
0.0
 11
647840.2599999999
 21
223013.11
 31
100.002
  0
LINE
  5
444
330
1F8
100
AcDbEntity
  8
SZABADON_ÁLLÓ_FAL__KERÍTÉSLÁBAZ
  6
0_18_-_PONTSOR__0_5-0_5_
 62
    57
100
AcDbLine
 10
647824.86
 20
222998.04
 30
0.0
 11
647829.39
 21
223002.48
 31
0.0
  0
LINE
  5
445
330
1F8
100
AcDbEntity
  8
SZABADON_ÁLLÓ_FAL__KERÍTÉSLÁBAZ
  6
0_18_-_PONTSOR__0_5-0_5_
 62
    57
100
AcDbLine
 10
647824.86
 20
222998.04
 30
0.0
 11
647725.6600000001
 21
222901.01
 31
99.801
  0
LINE
  5
446
330
1F8
100
AcDbEntity
  8
ALAPSZINTVONAL
  6
-
 62
     2
100
AcDbLine
 10
647836.41
 20
223043.05
 30
0.0
 11
647836.13
 21
223043.01
 31
99.0
  0
LINE
  5
447
330
1F8
100
AcDbEntity
  8
ALAPSZINTVONAL
  6
-
 62
     2
100
AcDbLine
 10
647834.39
 20
223043.9500000001
 30
0.0
 11
647835.36
 21
223043.34
 31
0.0
  0
LINE
  5
448
330
1F8
100
AcDbEntity
  8
ALAPSZINTVONAL
  6
-
 62
     2
100
AcDbLine
 10
647831.94
 20
223045.46
 30
0.0
 11
647834.39
 21
223043.9500000001
 31
0.0
  0
LINE
  5
449
330
1F8
100
AcDbEntity
  8
ALAPSZINTVONAL
  6
-
 62
     2
100
AcDbLine
 10
647828.1600000001
 20
223048.67
 30
0.0
 11
647831.94
 21
223045.46
 31
0.0
  0
LINE
  5
44A
330
1F8
100
AcDbEntity
  8
ALAPSZINTVONAL
  6
-
 62
     2
100
AcDbLine
 10
647824.7800000001
 20
223051.48
 30
0.0
 11
647828.1600000001
 21
223048.67
 31
0.0
  0
LINE
  5
44B
330
1F8
100
AcDbEntity
  8
ALAPSZINTVONAL
  6
-
 62
     2
100
AcDbLine
 10
647835.36
 20
223043.34
 30
0.0
 11
647836.13
 21
223043.01
 31
99.0
  0
LINE
  5
44C
330
1F8
100
AcDbEntity
  8
ALAPSZINTVONAL
  6
-
 62
     2
100
AcDbLine
 10
647800.3000000001
 20
223066.23
 30
99.0
 11
647804.4699999999
 21
223063.94
 31
0.0
  0
LINE
  5
44D
330
1F8
100
AcDbEntity
  8
ALAPSZINTVONAL
  6
-
 62
     2
100
AcDbLine
 10
647804.4699999999
 20
223063.94
 30
0.0
 11
647808.94
 21
223061.29
 31
0.0
  0
LINE
  5
44E
330
1F8
100
AcDbEntity
  8
ALAPSZINTVONAL
  6
-
 62
     2
100
AcDbLine
 10
647808.94
 20
223061.29
 30
0.0
 11
647814.52
 21
223057.91
 31
0.0
  0
LINE
  5
44F
330
1F8
100
AcDbEntity
  8
ALAPSZINTVONAL
  6
-
 62
     2
100
AcDbLine
 10
647814.52
 20
223057.91
 30
0.0
 11
647818.5100000001
 21
223055.92
 31
0.0
  0
LINE
  5
450
330
1F8
100
AcDbEntity
  8
ALAPSZINTVONAL
  6
-
 62
     2
100
AcDbLine
 10
647818.5100000001
 20
223055.92
 30
0.0
 11
647820.95
 21
223054.53
 31
0.0
  0
LINE
  5
451
330
1F8
100
AcDbEntity
  8
ALAPSZINTVONAL
  6
-
 62
     2
100
AcDbLine
 10
647820.95
 20
223054.53
 30
0.0
 11
647822.52
 21
223053.43
 31
99.0
  0
LINE
  5
452
330
1F8
100
AcDbEntity
  8
ALAPSZINTVONAL
  6
-
 62
     2
100
AcDbLine
 10
647822.52
 20
223053.43
 30
99.0
 11
647824.7800000001
 21
223051.48
 31
0.0
  0
LINE
  5
453
330
1F8
100
AcDbEntity
  8
ALAPSZINTVONAL
  6
-
 62
     2
100
AcDbLine
 10
647729.4300000001
 20
222948.47
 30
0.0
 11
647729.63
 21
222949.22
 31
99.0
  0
LINE
  5
454
330
1F8
100
AcDbEntity
  8
ALAPSZINTVONAL
  6
-
 62
     2
100
AcDbLine
 10
647729.63
 20
222949.22
 30
99.0
 11
647730.0600000001
 21
222949.85
 31
0.0
  0
LINE
  5
455
330
1F8
100
AcDbEntity
  8
ALAPSZINTVONAL
  6
-
 62
     2
100
AcDbLine
 10
647730.0600000001
 20
222949.85
 30
0.0
 11
647732.26
 21
222951.75
 31
0.0
  0
LINE
  5
456
330
1F8
100
AcDbEntity
  8
ALAPSZINTVONAL
  6
-
 62
     2
100
AcDbLine
 10
647732.26
 20
222951.75
 30
0.0
 11
647734.82
 21
222954.18
 31
0.0
  0
LINE
  5
457
330
1F8
100
AcDbEntity
  8
ALAPSZINTVONAL
  6
-
 62
     2
100
AcDbLine
 10
647734.82
 20
222954.18
 30
0.0
 11
647737.25
 21
222956.05
 31
0.0
  0
LINE
  5
458
330
1F8
100
AcDbEntity
  8
ALAPSZINTVONAL
  6
-
 62
     2
100
AcDbLine
 10
647737.25
 20
222956.05
 30
0.0
 11
647739.99
 21
222958.24
 31
0.0
  0
LINE
  5
459
330
1F8
100
AcDbEntity
  8
ALAPSZINTVONAL
  6
-
 62
     2
100
AcDbLine
 10
647739.99
 20
222958.24
 30
0.0
 11
647741.1899999999
 21
222959.57
 31
0.0
  0
LINE
  5
45A
330
1F8
100
AcDbEntity
  8
ALAPSZINTVONAL
  6
-
 62
     2
100
AcDbLine
 10
647741.1899999999
 20
222959.57
 30
0.0
 11
647741.47
 21
222960.53
 31
0.0
  0
LINE
  5
45B
330
1F8
100
AcDbEntity
  8
ALAPSZINTVONAL
  6
-
 62
     2
100
AcDbLine
 10
647741.47
 20
222960.53
 30
0.0
 11
647741.46
 21
222961.11
 31
99.0
  0
LINE
  5
45C
330
1F8
100
AcDbEntity
  8
ALAPSZINTVONAL
  6
-
 62
     2
100
AcDbLine
 10
647741.46
 20
222961.11
 30
99.0
 11
647741.22
 21
222961.55
 31
0.0
  0
LINE
  5
45D
330
1F8
100
AcDbEntity
  8
ALAPSZINTVONAL
  6
-
 62
     2
100
AcDbLine
 10
647741.22
 20
222961.55
 30
0.0
 11
647740.1999999999
 21
222962.46
 31
0.0
  0
LINE
  5
45E
330
1F8
100
AcDbEntity
  8
ALAPSZINTVONAL
  6
-
 62
     2
100
AcDbLine
 10
647740.1999999999
 20
222962.46
 30
0.0
 11
647738.76
 21
222963.21
 31
0.0
  0
LINE
  5
45F
330
1F8
100
AcDbEntity
  8
ALAPSZINTVONAL
  6
-
 62
     2
100
AcDbLine
 10
647738.76
 20
222963.21
 30
0.0
 11
647737.52
 21
222963.96
 31
0.0
  0
LINE
  5
460
330
1F8
100
AcDbEntity
  8
ALAPSZINTVONAL
  6
-
 62
     2
100
AcDbLine
 10
647737.52
 20
222963.96
 30
0.0
 11
647736.5899999999
 21
222964.67
 31
99.0
  0
LINE
  5
461
330
1F8
100
AcDbEntity
  8
ALAPSZINTVONAL
  6
-
 62
     2
100
AcDbLine
 10
647736.5899999999
 20
222964.67
 30
99.0
 11
647735.51
 21
222965.64
 31
0.0
  0
LINE
  5
462
330
1F8
100
AcDbEntity
  8
ALAPSZINTVONAL
  6
-
 62
     2
100
AcDbLine
 10
647735.51
 20
222965.64
 30
0.0
 11
647733.97
 21
222967.24
 31
0.0
  0
LINE
  5
463
330
1F8
100
AcDbEntity
  8
ALAPSZINTVONAL
  6
-
 62
     2
100
AcDbLine
 10
647733.97
 20
222967.24
 30
0.0
 11
647732.26
 21
222969.1
 31
0.0
  0
LINE
  5
464
330
1F8
100
AcDbEntity
  8
ALAPSZINTVONAL
  6
-
 62
     2
100
AcDbLine
 10
647732.26
 20
222969.1
 30
0.0
 11
647730.36
 21
222971.72
 31
0.0
  0
LINE
  5
465
330
1F8
100
AcDbEntity
  8
ALAPSZINTVONAL
  6
-
 62
     2
100
AcDbLine
 10
647730.36
 20
222971.72
 30
0.0
 11
647728.9200000001
 21
222973.83
 31
0.0
  0
LINE
  5
466
330
1F8
100
AcDbEntity
  8
ALAPSZINTVONAL
  6
-
 62
     2
100
AcDbLine
 10
647728.9200000001
 20
222973.83
 30
0.0
 11
647728.02
 21
222975.57
 31
0.0
  0
LINE
  5
467
330
1F8
100
AcDbEntity
  8
ALAPSZINTVONAL
  6
-
 62
     2
100
AcDbLine
 10
647728.02
 20
222975.57
 30
0.0
 11
647727.42
 21
222976.73
 31
99.0
  0
LINE
  5
468
330
1F8
100
AcDbEntity
  8
ALAPSZINTVONAL
  6
-
 62
     2
100
AcDbLine
 10
647727.42
 20
222976.73
 30
99.0
 11
647727.45
 21
222978.04
 31
0.0
  0
LINE
  5
469
330
1F8
100
AcDbEntity
  8
ALAPSZINTVONAL
  6
-
 62
     2
100
AcDbLine
 10
647727.45
 20
222978.04
 30
0.0
 11
647727.8700000001
 21
222979.33
 31
0.0
  0
LINE
  5
46A
330
1F8
100
AcDbEntity
  8
ALAPSZINTVONAL
  6
-
 62
     2
100
AcDbLine
 10
647727.8700000001
 20
222979.33
 30
0.0
 11
647728.59
 21
222980.2
 31
0.0
  0
LINE
  5
46B
330
1F8
100
AcDbEntity
  8
ALAPSZINTVONAL
  6
-
 62
     2
100
AcDbLine
 10
647728.59
 20
222980.2
 30
0.0
 11
647728.8900000001
 21
222981.29
 31
0.0
  0
LINE
  5
46C
330
1F8
100
AcDbEntity
  8
ALAPSZINTVONAL
  6
-
 62
     2
100
AcDbLine
 10
647728.8900000001
 20
222981.29
 30
0.0
 11
647728.74
 21
222982.03
 31
99.0
  0
LINE
  5
46D
330
1F8
100
AcDbEntity
  8
ALAPSZINTVONAL
  6
-
 62
     2
100
AcDbLine
 10
647728.74
 20
222982.03
 30
99.0
 11
647728.02
 21
222982.55
 31
0.0
  0
LINE
  5
46E
330
1F8
100
AcDbEntity
  8
ALAPSZINTVONAL
  6
-
 62
     2
100
AcDbLine
 10
647728.02
 20
222982.55
 30
0.0
 11
647725.9700000001
 21
222983.09
 31
0.0
  0
LINE
  5
46F
330
1F8
100
AcDbEntity
  8
ALAPSZINTVONAL
  6
-
 62
     2
100
AcDbLine
 10
647725.9700000001
 20
222983.09
 30
0.0
 11
647723.93
 21
222983.45
 31
0.0
  0
LINE
  5
470
330
1F8
100
AcDbEntity
  8
ALAPSZINTVONAL
  6
-
 62
     2
100
AcDbLine
 10
647723.93
 20
222983.45
 30
0.0
 11
647722.0600000001
 21
222983.87
 31
0.0
  0
LINE
  5
471
330
1F8
100
AcDbEntity
  8
ALAPSZINTVONAL
  6
-
 62
     2
100
AcDbLine
 10
647722.0600000001
 20
222983.87
 30
0.0
 11
647721.13
 21
222984.24
 31
0.0
  0
LINE
  5
472
330
1F8
100
AcDbEntity
  8
ALAPSZINTVONAL
  6
-
 62
     2
100
AcDbLine
 10
647721.13
 20
222984.24
 30
0.0
 11
647720.49
 21
222984.63
 31
99.0
  0
LINE
  5
473
330
1F8
100
AcDbEntity
  8
ALAPSZINTVONAL
  6
-
 62
     2
100
AcDbLine
 10
647720.49
 20
222984.63
 30
99.0
 11
647719.9
 21
222985.44
 31
0.0
  0
LINE
  5
474
330
1F8
100
AcDbEntity
  8
ALAPSZINTVONAL
  6
-
 62
     2
100
AcDbLine
 10
647719.9
 20
222985.44
 30
0.0
 11
647719.29
 21
222987.33
 31
0.0
  0
LINE
  5
475
330
1F8
100
AcDbEntity
  8
ALAPSZINTVONAL
  6
-
 62
     2
100
AcDbLine
 10
647719.29
 20
222987.33
 30
0.0
 11
647718.48
 21
222990.89
 31
0.0
  0
LINE
  5
476
330
1F8
100
AcDbEntity
  8
ALAPSZINTVONAL
  6
-
 62
     2
100
AcDbLine
 10
647718.48
 20
222990.89
 30
0.0
 11
647717.5800000001
 21
222995.58
 31
0.0
  0
LINE
  5
477
330
1F8
100
AcDbEntity
  8
ALAPSZINTVONAL
  6
-
 62
     2
100
AcDbLine
 10
647717.5800000001
 20
222995.58
 30
0.0
 11
647716.68
 21
223000.1
 31
0.0
  0
LINE
  5
478
330
1F8
100
AcDbEntity
  8
ALAPSZINTVONAL
  6
-
 62
     2
100
AcDbLine
 10
647765.99
 20
222998.18
 30
99.0
 11
647768.1200000001
 21
222996.25
 31
0.0
  0
LINE
  5
479
330
1F8
100
AcDbEntity
  8
ALAPSZINTVONAL
  6
-
 62
     2
100
AcDbLine
 10
647768.1200000001
 20
222996.25
 30
0.0
 11
647771.4300000001
 21
222993.24
 31
0.0
  0
LINE
  5
47A
330
1F8
100
AcDbEntity
  8
ALAPSZINTVONAL
  6
-
 62
     2
100
AcDbLine
 10
647771.4300000001
 20
222993.24
 30
0.0
 11
647774.8000000001
 21
222990.05
 31
0.0
  0
LINE
  5
47B
330
1F8
100
AcDbEntity
  8
ALAPSZINTVONAL
  6
-
 62
     2
100
AcDbLine
 10
647774.8000000001
 20
222990.05
 30
0.0
 11
647776.18
 21
222987.94
 31
0.0
  0
LINE
  5
47C
330
1F8
100
AcDbEntity
  8
ALAPSZINTVONAL
  6
-
 62
     2
100
AcDbLine
 10
647776.18
 20
222987.94
 30
0.0
 11
647776.48
 21
222986.8
 31
99.0
  0
LINE
  5
47D
330
1F8
100
AcDbEntity
  8
ALAPSZINTVONAL
  6
-
 62
     2
100
AcDbLine
 10
647776.48
 20
222986.8
 30
99.0
 11
647776.4200000001
 21
222984.87
 31
0.0
  0
LINE
  5
47E
330
1F8
100
AcDbEntity
  8
ALAPSZINTVONAL
  6
-
 62
     2
100
AcDbLine
 10
647776.4200000001
 20
222984.87
 30
0.0
 11
647775.64
 21
222981.75
 31
0.0
  0
LINE
  5
47F
330
1F8
100
AcDbEntity
  8
ALAPSZINTVONAL
  6
-
 62
     2
100
AcDbLine
 10
647775.64
 20
222981.75
 30
0.0
 11
647774.5899999999
 21
222980.15
 31
99.0
  0
LINE
  5
480
330
1F8
100
AcDbEntity
  8
ALAPSZINTVONAL
  6
-
 62
     2
100
AcDbLine
 10
647774.5899999999
 20
222980.15
 30
99.0
 11
647773.48
 21
222978.32
 31
0.0
  0
LINE
  5
481
330
1F8
100
AcDbEntity
  8
ALAPSZINTVONAL
  6
-
 62
     2
100
AcDbLine
 10
647773.48
 20
222978.32
 30
0.0
 11
647771.3699999999
 21
222975.49
 31
0.0
  0
LINE
  5
482
330
1F8
100
AcDbEntity
  8
ALAPSZINTVONAL
  6
-
 62
     2
100
AcDbLine
 10
647771.3699999999
 20
222975.49
 30
0.0
 11
647769.33
 21
222973.67
 31
99.0
  0
LINE
  5
483
330
1F8
100
AcDbEntity
  8
ALAPSZINTVONAL
  6
-
 62
     2
100
AcDbLine
 10
647769.33
 20
222973.67
 30
99.0
 11
647766.44
 21
222971.52
 31
0.0
  0
LINE
  5
484
330
1F8
100
AcDbEntity
  8
ALAPSZINTVONAL
  6
-
 62
     2
100
AcDbLine
 10
647766.44
 20
222971.52
 30
0.0
 11
647761.32
 21
222968.39
 31
0.0
  0
LINE
  5
485
330
1F8
100
AcDbEntity
  8
ALAPSZINTVONAL
  6
-
 62
     2
100
AcDbLine
 10
647761.32
 20
222968.39
 30
0.0
 11
647758.95
 21
222966.8
 31
99.0
  0
LINE
  5
486
330
1F8
100
AcDbEntity
  8
ALAPSZINTVONAL
  6
-
 62
     2
100
AcDbLine
 10
647758.95
 20
222966.8
 30
99.0
 11
647756.3899999999
 21
222965.2
 31
0.0
  0
LINE
  5
487
330
1F8
100
AcDbEntity
  8
ALAPSZINTVONAL
  6
-
 62
     2
100
AcDbLine
 10
647756.3899999999
 20
222965.2
 30
0.0
 11
647752.5400000001
 21
222962.79
 31
0.0
  0
LINE
  5
488
330
1F8
100
AcDbEntity
  8
ALAPSZINTVONAL
  6
-
 62
     2
100
AcDbLine
 10
647752.5400000001
 20
222962.79
 30
0.0
 11
647750.01
 21
222961.01
 31
99.0
  0
LINE
  5
489
330
1F8
100
AcDbEntity
  8
ALAPSZINTVONAL
  6
-
 62
     2
100
AcDbLine
 10
647750.01
 20
222961.01
 30
99.0
 11
647747.24
 21
222958.88
 31
0.0
  0
LINE
  5
48A
330
1F8
100
AcDbEntity
  8
ALAPSZINTVONAL
  6
-
 62
     2
100
AcDbLine
 10
647747.24
 20
222958.88
 30
0.0
 11
647742.5500000001
 21
222955.51
 31
0.0
  0
LINE
  5
48B
330
1F8
100
AcDbEntity
  8
ALAPSZINTVONAL
  6
-
 62
     2
100
AcDbLine
 10
647742.5500000001
 20
222955.51
 30
0.0
 11
647737.73
 21
222952.36
 31
0.0
  0
LINE
  5
48C
330
1F8
100
AcDbEntity
  8
ALAPSZINTVONAL
  6
-
 62
     2
100
AcDbLine
 10
647737.73
 20
222952.36
 30
0.0
 11
647734.9000000001
 21
222950.55
 31
0.0
  0
LINE
  5
48D
330
1F8
100
AcDbEntity
  8
ALAPSZINTVONAL
  6
-
 62
     2
100
AcDbLine
 10
647734.9000000001
 20
222950.55
 30
0.0
 11
647732.8400000001
 21
222949.12
 31
99.0
  0
LINE
  5
48E
330
1F8
100
AcDbEntity
  8
ALAPSZINTVONAL
  6
-
 62
     2
100
AcDbLine
 10
647732.8400000001
 20
222949.12
 30
99.0
 11
647732.1
 21
222948.57
 31
0.0
  0
LINE
  5
48F
330
1F8
100
AcDbEntity
  8
ALAPSZINTVONAL
  6
-
 62
     2
100
AcDbLine
 10
647732.1
 20
222948.57
 30
0.0
 11
647731.74
 21
222948.12
 31
0.0
  0
LINE
  5
490
330
1F8
100
AcDbEntity
  8
ALAPSZINTVONAL
  6
-
 62
     2
100
AcDbLine
 10
647731.74
 20
222948.12
 30
0.0
 11
647731.3800000001
 21
222947.83
 31
99.0
  0
LINE
  5
491
330
1F8
100
AcDbEntity
  8
ALAPSZINTVONAL
  6
-
 62
     2
100
AcDbLine
 10
647731.3800000001
 20
222947.83
 30
99.0
 11
647730.6899999999
 21
222947.33
 31
0.0
  0
LINE
  5
492
330
1F8
100
AcDbEntity
  8
ALAPSZINTVONAL
  6
-
 62
     2
100
AcDbLine
 10
647730.6899999999
 20
222947.33
 30
0.0
 11
647730.0
 21
222947.14
 31
99.0
  0
LINE
  5
493
330
1F8
100
AcDbEntity
  8
ALAPSZINTVONAL
  6
-
 62
     2
100
AcDbLine
 10
647730.0
 20
222947.14
 30
99.0
 11
647729.61
 21
222947.44
 31
0.0
  0
LINE
  5
494
330
1F8
100
AcDbEntity
  8
ALAPSZINTVONAL
  6
-
 62
     2
100
AcDbLine
 10
647729.61
 20
222947.44
 30
0.0
 11
647729.46
 21
222947.88
 31
0.0
  0
LINE
  5
495
330
1F8
100
AcDbEntity
  8
ALAPSZINTVONAL
  6
-
 62
     2
100
AcDbLine
 10
647729.46
 20
222947.88
 30
0.0
 11
647729.4300000001
 21
222948.47
 31
0.0
  0
LINE
  5
496
330
1F8
100
AcDbEntity
  8
ALAPSZINTVONAL
  6
-
 62
     2
100
AcDbLine
 10
647761.02
 20
223017.78
 30
0.0
 11
647762.8299999999
 21
223010.02
 31
0.0
  0
LINE
  5
497
330
1F8
100
AcDbEntity
  8
ALAPSZINTVONAL
  6
-
 62
     2
100
AcDbLine
 10
647690.53
 20
223136.53
 30
0.0
 11
647691.58
 21
223135.54
 31
0.0
  0
LINE
  5
498
330
1F8
100
AcDbEntity
  8
ALAPSZINTVONAL
  6
-
 62
     2
100
AcDbLine
 10
647768.1099999999
 20
223090.68
 30
0.0
 11
647769.41
 21
223089.69
 31
99.0
  0
LINE
  5
499
330
1F8
100
AcDbEntity
  8
ALAPSZINTVONAL
  6
-
 62
     2
100
AcDbLine
 10
647765.7500000001
 20
223093.41
 30
0.0
 11
647768.1099999999
 21
223090.68
 31
0.0
  0
LINE
  5
49A
330
1F8
100
AcDbEntity
  8
ALAPSZINTVONAL
  6
-
 62
     2
100
AcDbLine
 10
647728.8699999999
 20
223146.9800000001
 30
0.0
 11
647729.1700000001
 21
223145.87
 31
99.0
  0
LINE
  5
49B
330
1F8
100
AcDbEntity
  8
ALAPSZINTVONAL
  6
-
 62
     2
100
AcDbLine
 10
647797.14
 20
223068.25
 30
0.0
 11
647800.3000000001
 21
223066.23
 31
99.0
  0
LINE
  5
49C
330
1F8
100
AcDbEntity
  8
ALAPSZINTVONAL
  6
-
 62
     2
100
AcDbLine
 10
647707.3000000001
 20
223128.6
 30
0.0
 11
647704.32
 21
223132.47
 31
0.0
  0
LINE
  5
49D
330
1F8
100
AcDbEntity
  8
ALAPSZINTVONAL
  6
-
 62
     2
100
AcDbLine
 10
647704.32
 20
223132.47
 30
0.0
 11
647701.3000000001
 21
223135.74
 31
0.0
  0
LINE
  5
49E
330
1F8
100
AcDbEntity
  8
ALAPSZINTVONAL
  6
-
 62
     2
100
AcDbLine
 10
647701.3000000001
 20
223135.74
 30
0.0
 11
647699.79
 21
223137.32
 31
99.0
  0
LINE
  5
49F
330
1F8
100
AcDbEntity
  8
ALAPSZINTVONAL
  6
-
 62
     2
100
AcDbLine
 10
647699.79
 20
223137.32
 30
99.0
 11
647698.3199999999
 21
223139.11
 31
0.0
  0
LINE
  5
4A0
330
1F8
100
AcDbEntity
  8
ALAPSZINTVONAL
  6
-
 62
     2
100
AcDbLine
 10
647698.3199999999
 20
223139.11
 30
0.0
 11
647696.7400000001
 21
223141.34
 31
0.0
  0
LINE
  5
4A1
330
1F8
100
AcDbEntity
  8
ALAPSZINTVONAL
  6
-
 62
     2
100
AcDbLine
 10
647769.41
 20
223089.69
 30
99.0
 11
647771.4900000001
 21
223088.28
 31
0.0
  0
LINE
  5
4A2
330
1F8
100
AcDbEntity
  8
ALAPSZINTVONAL
  6
-
 62
     2
100
AcDbLine
 10
647771.4900000001
 20
223088.28
 30
0.0
 11
647775.6500000001
 21
223084.66
 31
0.0
  0
LINE
  5
4A3
330
1F8
100
AcDbEntity
  8
ALAPSZINTVONAL
  6
-
 62
     2
100
AcDbLine
 10
647775.6500000001
 20
223084.66
 30
0.0
 11
647778.78
 21
223081.44
 31
0.0
  0
LINE
  5
4A4
330
1F8
100
AcDbEntity
  8
ALAPSZINTVONAL
  6
-
 62
     2
100
AcDbLine
 10
647778.78
 20
223081.44
 30
0.0
 11
647781.96
 21
223078.59
 31
0.0
  0
LINE
  5
4A5
330
1F8
100
AcDbEntity
  8
ALAPSZINTVONAL
  6
-
 62
     2
100
AcDbLine
 10
647781.96
 20
223078.59
 30
0.0
 11
647784.79
 21
223077.01
 31
99.0
  0
LINE
  5
4A6
330
1F8
100
AcDbEntity
  8
ALAPSZINTVONAL
  6
-
 62
     2
100
AcDbLine
 10
647759.28
 20
223022.72
 30
0.0
 11
647761.02
 21
223017.78
 31
0.0
  0
LINE
  5
4A7
330
1F8
100
AcDbEntity
  8
ALAPSZINTVONAL
  6
-
 62
     2
100
AcDbLine
 10
647788.1400000001
 20
223075.29
 30
0.0
 11
647792.86
 21
223071.59
 31
0.0
  0
LINE
  5
4A8
330
1F8
100
AcDbEntity
  8
ALAPSZINTVONAL
  6
-
 62
     2
100
AcDbLine
 10
647792.86
 20
223071.59
 30
0.0
 11
647797.14
 21
223068.25
 31
0.0
  0
LINE
  5
4A9
330
1F8
100
AcDbEntity
  8
ALAPSZINTVONAL
  6
-
 62
     2
100
AcDbLine
 10
647764.75
 20
223000.34
 30
0.0
 11
647765.99
 21
222998.18
 31
99.0
  0
LINE
  5
4AA
330
1F8
100
AcDbEntity
  8
ALAPSZINTVONAL
  6
-
 62
     2
100
AcDbLine
 10
647763.6700000001
 20
223004.67
 30
0.0
 11
647764.75
 21
223000.34
 31
0.0
  0
LINE
  5
4AB
330
1F8
100
AcDbEntity
  8
ALAPSZINTVONAL
  6
-
 62
     2
100
AcDbLine
 10
647696.7400000001
 20
223141.34
 30
0.0
 11
647695.9599999999
 21
223142.59
 31
0.0
  0
LINE
  5
4AC
330
1F8
100
AcDbEntity
  8
ALAPSZINTVONAL
  6
-
 62
     2
100
AcDbLine
 10
647691.58
 20
223135.54
 30
0.0
 11
647693.9100000001
 21
223133.31
 31
0.0
  0
LINE
  5
4AD
330
1F8
100
AcDbEntity
  8
ALAPSZINTVONAL
  6
-
 62
     2
100
AcDbLine
 10
647693.9100000001
 20
223133.31
 30
0.0
 11
647696.59
 21
223130.53
 31
0.0
  0
LINE
  5
4AE
330
1F8
100
AcDbEntity
  8
ALAPSZINTVONAL
  6
-
 62
     2
100
AcDbLine
 10
647696.59
 20
223130.53
 30
0.0
 11
647698.7700000001
 21
223128.0
 31
0.0
  0
LINE
  5
4AF
330
1F8
100
AcDbEntity
  8
ALAPSZINTVONAL
  6
-
 62
     2
100
AcDbLine
 10
647698.7700000001
 20
223128.0
 30
0.0
 11
647699.2
 21
223127.37
 31
99.0
  0
LINE
  5
4B0
330
1F8
100
AcDbEntity
  8
ALAPSZINTVONAL
  6
-
 62
     2
100
AcDbLine
 10
647699.2
 20
223127.37
 30
99.0
 11
647700.5100000001
 21
223126.07
 31
0.0
  0
LINE
  5
4B1
330
1F8
100
AcDbEntity
  8
ALAPSZINTVONAL
  6
-
 62
     2
100
AcDbLine
 10
647700.5100000001
 20
223126.07
 30
0.0
 11
647702.34
 21
223123.94
 31
0.0
  0
LINE
  5
4B2
330
1F8
100
AcDbEntity
  8
ALAPSZINTVONAL
  6
-
 62
     2
100
AcDbLine
 10
647702.34
 20
223123.94
 30
0.0
 11
647704.52
 21
223121.85
 31
0.0
  0
LINE
  5
4B3
330
1F8
100
AcDbEntity
  8
ALAPSZINTVONAL
  6
-
 62
     2
100
AcDbLine
 10
647704.52
 20
223121.85
 30
0.0
 11
647706.95
 21
223120.12
 31
0.0
  0
LINE
  5
4B4
330
1F8
100
AcDbEntity
  8
ALAPSZINTVONAL
  6
-
 62
     2
100
AcDbLine
 10
647706.95
 20
223120.12
 30
0.0
 11
647708.32
 21
223119.35
 31
99.0
  0
LINE
  5
4B5
330
1F8
100
AcDbEntity
  8
ALAPSZINTVONAL
  6
-
 62
     2
100
AcDbLine
 10
647708.32
 20
223119.35
 30
99.0
 11
647709.78
 21
223119.18
 31
0.0
  0
LINE
  5
4B6
330
1F8
100
AcDbEntity
  8
ALAPSZINTVONAL
  6
-
 62
     2
100
AcDbLine
 10
647709.78
 20
223119.18
 30
0.0
 11
647710.8199999999
 21
223119.18
 31
0.0
  0
LINE
  5
4B7
330
1F8
100
AcDbEntity
  8
ALAPSZINTVONAL
  6
-
 62
     2
100
AcDbLine
 10
647710.8199999999
 20
223119.18
 30
0.0
 11
647713.45
 21
223119.92
 31
0.0
  0
LINE
  5
4B8
330
1F8
100
AcDbEntity
  8
ALAPSZINTVONAL
  6
-
 62
     2
100
AcDbLine
 10
647713.45
 20
223119.92
 30
0.0
 11
647714.69
 21
223121.26
 31
0.0
  0
LINE
  5
4B9
330
1F8
100
AcDbEntity
  8
ALAPSZINTVONAL
  6
-
 62
     2
100
AcDbLine
 10
647714.69
 20
223121.26
 30
0.0
 11
647714.7600000001
 21
223122.11
 31
99.0
  0
LINE
  5
4BA
330
1F8
100
AcDbEntity
  8
ALAPSZINTVONAL
  6
-
 62
     2
100
AcDbLine
 10
647714.7600000001
 20
223122.11
 30
99.0
 11
647714.44
 21
223122.85
 31
0.0
  0
LINE
  5
4BB
330
1F8
100
AcDbEntity
  8
ALAPSZINTVONAL
  6
-
 62
     2
100
AcDbLine
 10
647714.44
 20
223122.85
 30
0.0
 11
647713.5500000001
 21
223123.04
 31
0.0
  0
LINE
  5
4BC
330
1F8
100
AcDbEntity
  8
ALAPSZINTVONAL
  6
-
 62
     2
100
AcDbLine
 10
647713.5500000001
 20
223123.04
 30
0.0
 11
647712.46
 21
223123.09
 31
0.0
  0
LINE
  5
4BD
330
1F8
100
AcDbEntity
  8
ALAPSZINTVONAL
  6
-
 62
     2
100
AcDbLine
 10
647712.46
 20
223123.09
 30
0.0
 11
647711.24
 21
223123.72
 31
99.0
  0
LINE
  5
4BE
330
1F8
100
AcDbEntity
  8
ALAPSZINTVONAL
  6
-
 62
     2
100
AcDbLine
 10
647711.24
 20
223123.72
 30
99.0
 11
647710.37
 21
223124.38
 31
0.0
  0
LINE
  5
4BF
330
1F8
100
AcDbEntity
  8
ALAPSZINTVONAL
  6
-
 62
     2
100
AcDbLine
 10
647710.37
 20
223124.38
 30
0.0
 11
647709.3299999999
 21
223126.02
 31
0.0
  0
LINE
  5
4C0
330
1F8
100
AcDbEntity
  8
ALAPSZINTVONAL
  6
-
 62
     2
100
AcDbLine
 10
647758.3000000001
 20
223023.42
 30
99.0
 11
647759.28
 21
223022.72
 31
0.0
  0
LINE
  5
4C1
330
1F8
100
AcDbEntity
  8
ALAPSZINTVONAL
  6
-
 62
     2
100
AcDbLine
 10
647729.1700000001
 20
223145.87
 30
99.0
 11
647729.5600000001
 21
223144.42
 31
0.0
  0
LINE
  5
4C2
330
1F8
100
AcDbEntity
  8
ALAPSZINTVONAL
  6
-
 62
     2
100
AcDbLine
 10
647729.5600000001
 20
223144.42
 30
0.0
 11
647731.3600000001
 21
223140.75
 31
0.0
  0
LINE
  5
4C3
330
1F8
100
AcDbEntity
  8
ALAPSZINTVONAL
  6
-
 62
     2
100
AcDbLine
 10
647731.3600000001
 20
223140.75
 30
0.0
 11
647733.47
 21
223137.25
 31
0.0
  0
LINE
  5
4C4
330
1F8
100
AcDbEntity
  8
ALAPSZINTVONAL
  6
-
 62
     2
100
AcDbLine
 10
647733.47
 20
223137.25
 30
0.0
 11
647735.59
 21
223134.44
 31
0.0
  0
LINE
  5
4C5
330
1F8
100
AcDbEntity
  8
ALAPSZINTVONAL
  6
-
 62
     2
100
AcDbLine
 10
647735.59
 20
223134.44
 30
0.0
 11
647737.1999999999
 21
223133.14
 31
99.0
  0
LINE
  5
4C6
330
1F8
100
AcDbEntity
  8
ALAPSZINTVONAL
  6
-
 62
     2
100
AcDbLine
 10
647737.1999999999
 20
223133.14
 30
99.0
 11
647738.1499999999
 21
223132.61
 31
0.0
  0
LINE
  5
4C7
330
1F8
100
AcDbEntity
  8
ALAPSZINTVONAL
  6
-
 62
     2
100
AcDbLine
 10
647738.1499999999
 20
223132.61
 30
0.0
 11
647739.2299999999
 21
223132.25
 31
99.0
  0
LINE
  5
4C8
330
1F8
100
AcDbEntity
  8
ALAPSZINTVONAL
  6
-
 62
     2
100
AcDbLine
 10
647739.2299999999
 20
223132.25
 30
99.0
 11
647740.51
 21
223131.39
 31
0.0
  0
LINE
  5
4C9
330
1F8
100
AcDbEntity
  8
ALAPSZINTVONAL
  6
-
 62
     2
100
AcDbLine
 10
647740.51
 20
223131.39
 30
0.0
 11
647742.3100000001
 21
223128.74
 31
0.0
  0
LINE
  5
4CA
330
1F8
100
AcDbEntity
  8
ALAPSZINTVONAL
  6
-
 62
     2
100
AcDbLine
 10
647742.3100000001
 20
223128.74
 30
0.0
 11
647743.57
 21
223126.34
 31
0.0
  0
LINE
  5
4CB
330
1F8
100
AcDbEntity
  8
ALAPSZINTVONAL
  6
-
 62
     2
100
AcDbLine
 10
647743.57
 20
223126.34
 30
0.0
 11
647744.2100000001
 21
223124.96
 31
99.0
  0
LINE
  5
4CC
330
1F8
100
AcDbEntity
  8
ALAPSZINTVONAL
  6
-
 62
     2
100
AcDbLine
 10
647744.2100000001
 20
223124.96
 30
99.0
 11
647746.01
 21
223121.9
 31
0.0
  0
LINE
  5
4CD
330
1F8
100
AcDbEntity
  8
ALAPSZINTVONAL
  6
-
 62
     2
100
AcDbLine
 10
647746.01
 20
223121.9
 30
0.0
 11
647750.08
 21
223116.25
 31
0.0
  0
LINE
  5
4CE
330
1F8
100
AcDbEntity
  8
ALAPSZINTVONAL
  6
-
 62
     2
100
AcDbLine
 10
647750.08
 20
223116.25
 30
0.0
 11
647754.19
 21
223110.26
 31
0.0
  0
LINE
  5
4CF
330
1F8
100
AcDbEntity
  8
ALAPSZINTVONAL
  6
-
 62
     2
100
AcDbLine
 10
647754.19
 20
223110.26
 30
0.0
 11
647759.36
 21
223103.22
 31
0.0
  0
LINE
  5
4D0
330
1F8
100
AcDbEntity
  8
ALAPSZINTVONAL
  6
-
 62
     2
100
AcDbLine
 10
647759.36
 20
223103.22
 30
0.0
 11
647762.86
 21
223097.64
 31
0.0
  0
LINE
  5
4D1
330
1F8
100
AcDbEntity
  8
ALAPSZINTVONAL
  6
-
 62
     2
100
AcDbLine
 10
647762.86
 20
223097.64
 30
0.0
 11
647765.7500000001
 21
223093.41
 31
0.0
  0
LINE
  5
4D2
330
1F8
100
AcDbEntity
  8
ALAPSZINTVONAL
  6
-
 62
     2
100
AcDbLine
 10
647715.66
 20
223005.51
 30
0.0
 11
647714.27
 21
223010.69
 31
0.0
  0
LINE
  5
4D3
330
1F8
100
AcDbEntity
  8
ALAPSZINTVONAL
  6
-
 62
     2
100
AcDbLine
 10
647714.27
 20
223010.69
 30
0.0
 11
647713.2400000001
 21
223012.8800000001
 31
99.0
  0
LINE
  5
4D4
330
1F8
100
AcDbEntity
  8
ALAPSZINTVONAL
  6
-
 62
     2
100
AcDbLine
 10
647713.2400000001
 20
223012.8800000001
 30
99.0
 11
647712.2300000001
 21
223014.3
 31
0.0
  0
LINE
  5
4D5
330
1F8
100
AcDbEntity
  8
ALAPSZINTVONAL
  6
-
 62
     2
100
AcDbLine
 10
647712.2300000001
 20
223014.3
 30
0.0
 11
647709.94
 21
223016.64
 31
0.0
  0
LINE
  5
4D6
330
1F8
100
AcDbEntity
  8
ALAPSZINTVONAL
  6
-
 62
     2
100
AcDbLine
 10
647709.94
 20
223016.64
 30
0.0
 11
647707.23
 21
223019.29
 31
0.0
  0
LINE
  5
4D7
330
1F8
100
AcDbEntity
  8
ALAPSZINTVONAL
  6
-
 62
     2
100
AcDbLine
 10
647707.23
 20
223019.29
 30
0.0
 11
647705.49
 21
223021.64
 31
0.0
  0
LINE
  5
4D8
330
1F8
100
AcDbEntity
  8
ALAPSZINTVONAL
  6
-
 62
     2
100
AcDbLine
 10
647705.49
 20
223021.64
 30
0.0
 11
647705.0699999999
 21
223022.66
 31
0.0
  0
LINE
  5
4D9
330
1F8
100
AcDbEntity
  8
ALAPSZINTVONAL
  6
-
 62
     2
100
AcDbLine
 10
647705.0699999999
 20
223022.66
 30
0.0
 11
647704.7699999999
 21
223023.86
 31
99.0
  0
LINE
  5
4DA
330
1F8
100
AcDbEntity
  8
ALAPSZINTVONAL
  6
-
 62
     2
100
AcDbLine
 10
647704.7699999999
 20
223023.86
 30
99.0
 11
647704.8899999999
 21
223025.0
 31
0.0
  0
LINE
  5
4DB
330
1F8
100
AcDbEntity
  8
ALAPSZINTVONAL
  6
-
 62
     2
100
AcDbLine
 10
647704.8899999999
 20
223025.0
 30
0.0
 11
647706.57
 21
223027.83
 31
0.0
  0
LINE
  5
4DC
330
1F8
100
AcDbEntity
  8
ALAPSZINTVONAL
  6
-
 62
     2
100
AcDbLine
 10
647706.57
 20
223027.83
 30
0.0
 11
647709.64
 21
223031.86
 31
0.0
  0
LINE
  5
4DD
330
1F8
100
AcDbEntity
  8
ALAPSZINTVONAL
  6
-
 62
     2
100
AcDbLine
 10
647709.64
 20
223031.86
 30
0.0
 11
647712.81
 21
223035.11
 31
99.0
  0
LINE
  5
4DE
330
1F8
100
AcDbEntity
  8
ALAPSZINTVONAL
  6
-
 62
     2
100
AcDbLine
 10
647712.81
 20
223035.11
 30
99.0
 11
647714.27
 21
223036.56
 31
0.0
  0
LINE
  5
4DF
330
1F8
100
AcDbEntity
  8
ALAPSZINTVONAL
  6
-
 62
     2
100
AcDbLine
 10
647714.27
 20
223036.56
 30
0.0
 11
647715.22
 21
223038.34
 31
99.0
  0
LINE
  5
4E0
330
1F8
100
AcDbEntity
  8
ALAPSZINTVONAL
  6
-
 62
     2
100
AcDbLine
 10
647715.22
 20
223038.34
 30
99.0
 11
647715.3000000001
 21
223040.23
 31
0.0
  0
LINE
  5
4E1
330
1F8
100
AcDbEntity
  8
ALAPSZINTVONAL
  6
-
 62
     2
100
AcDbLine
 10
647715.3000000001
 20
223040.23
 30
0.0
 11
647714.27
 21
223044.8
 31
0.0
  0
LINE
  5
4E2
330
1F8
100
AcDbEntity
  8
ALAPSZINTVONAL
  6
-
 62
     2
100
AcDbLine
 10
647714.27
 20
223044.8
 30
0.0
 11
647712.4100000001
 21
223048.77
 31
0.0
  0
LINE
  5
4E3
330
1F8
100
AcDbEntity
  8
ALAPSZINTVONAL
  6
-
 62
     2
100
AcDbLine
 10
647712.4100000001
 20
223048.77
 30
0.0
 11
647711.08
 21
223052.5
 31
0.0
  0
LINE
  5
4E4
330
1F8
100
AcDbEntity
  8
ALAPSZINTVONAL
  6
-
 62
     2
100
AcDbLine
 10
647711.08
 20
223052.5
 30
0.0
 11
647710.1800000001
 21
223055.81
 31
0.0
  0
LINE
  5
4E5
330
1F8
100
AcDbEntity
  8
ALAPSZINTVONAL
  6
-
 62
     2
100
AcDbLine
 10
647710.1800000001
 20
223055.81
 30
0.0
 11
647710.1400000001
 21
223057.87
 31
99.0
  0
LINE
  5
4E6
330
1F8
100
AcDbEntity
  8
ALAPSZINTVONAL
  6
-
 62
     2
100
AcDbLine
 10
647710.1400000001
 20
223057.87
 30
99.0
 11
647710.72
 21
223059.3
 31
0.0
  0
LINE
  5
4E7
330
1F8
100
AcDbEntity
  8
ALAPSZINTVONAL
  6
-
 62
     2
100
AcDbLine
 10
647710.72
 20
223059.3
 30
0.0
 11
647712.1100000001
 21
223062.49
 31
0.0
  0
LINE
  5
4E8
330
1F8
100
AcDbEntity
  8
ALAPSZINTVONAL
  6
-
 62
     2
100
AcDbLine
 10
647712.1100000001
 20
223062.49
 30
0.0
 11
647713.07
 21
223065.86
 31
0.0
  0
LINE
  5
4E9
330
1F8
100
AcDbEntity
  8
ALAPSZINTVONAL
  6
-
 62
     2
100
AcDbLine
 10
647713.07
 20
223065.86
 30
0.0
 11
647713.2800000001
 21
223067.83
 31
99.0
  0
LINE
  5
4EA
330
1F8
100
AcDbEntity
  8
ALAPSZINTVONAL
  6
-
 62
     2
100
AcDbLine
 10
647713.2800000001
 20
223067.83
 30
99.0
 11
647713.25
 21
223071.03
 31
0.0
  0
LINE
  5
4EB
330
1F8
100
AcDbEntity
  8
ALAPSZINTVONAL
  6
-
 62
     2
100
AcDbLine
 10
647713.25
 20
223071.03
 30
0.0
 11
647711.87
 21
223077.65
 31
0.0
  0
LINE
  5
4EC
330
1F8
100
AcDbEntity
  8
ALAPSZINTVONAL
  6
-
 62
     2
100
AcDbLine
 10
647711.87
 20
223077.65
 30
0.0
 11
647710.5400000001
 21
223083.6700000001
 31
0.0
  0
LINE
  5
4ED
330
1F8
100
AcDbEntity
  8
ALAPSZINTVONAL
  6
-
 62
     2
100
AcDbLine
 10
647710.5400000001
 20
223083.6700000001
 30
0.0
 11
647709.2800000001
 21
223089.8
 31
0.0
  0
LINE
  5
4EE
330
1F8
100
AcDbEntity
  8
ALAPSZINTVONAL
  6
-
 62
     2
100
AcDbLine
 10
647709.2800000001
 20
223089.8
 30
0.0
 11
647708.6200000001
 21
223094.56
 31
0.0
  0
LINE
  5
4EF
330
1F8
100
AcDbEntity
  8
ALAPSZINTVONAL
  6
-
 62
     2
100
AcDbLine
 10
647708.6200000001
 20
223094.56
 30
0.0
 11
647708.7400000001
 21
223096.18
 31
0.0
  0
LINE
  5
4F0
330
1F8
100
AcDbEntity
  8
ALAPSZINTVONAL
  6
-
 62
     2
100
AcDbLine
 10
647708.7400000001
 20
223096.18
 30
0.0
 11
647709.1899999999
 21
223098.08
 31
99.0
  0
LINE
  5
4F1
330
1F8
100
AcDbEntity
  8
ALAPSZINTVONAL
  6
-
 62
     2
100
AcDbLine
 10
647709.1899999999
 20
223098.08
 30
99.0
 11
647709.76
 21
223099.73
 31
0.0
  0
LINE
  5
4F2
330
1F8
100
AcDbEntity
  8
ALAPSZINTVONAL
  6
-
 62
     2
100
AcDbLine
 10
647709.76
 20
223099.73
 30
0.0
 11
647710.73
 21
223100.71
 31
99.0
  0
LINE
  5
4F3
330
1F8
100
AcDbEntity
  8
ALAPSZINTVONAL
  6
-
 62
     2
100
AcDbLine
 10
647710.73
 20
223100.71
 30
99.0
 11
647711.8100000001
 21
223100.89
 31
99.0
  0
LINE
  5
4F4
330
1F8
100
AcDbEntity
  8
ALAPSZINTVONAL
  6
-
 62
     2
100
AcDbLine
 10
647711.8100000001
 20
223100.89
 30
99.0
 11
647712.65
 21
223100.15
 31
0.0
  0
LINE
  5
4F5
330
1F8
100
AcDbEntity
  8
ALAPSZINTVONAL
  6
-
 62
     2
100
AcDbLine
 10
647712.65
 20
223100.15
 30
0.0
 11
647713.42
 21
223098.95
 31
99.0
  0
LINE
  5
4F6
330
1F8
100
AcDbEntity
  8
ALAPSZINTVONAL
  6
-
 62
     2
100
AcDbLine
 10
647713.42
 20
223098.95
 30
99.0
 11
647715.36
 21
223095.88
 31
0.0
  0
LINE
  5
4F7
330
1F8
100
AcDbEntity
  8
ALAPSZINTVONAL
  6
-
 62
     2
100
AcDbLine
 10
647715.36
 20
223095.88
 30
0.0
 11
647720.83
 21
223089.68
 31
0.0
  0
LINE
  5
4F8
330
1F8
100
AcDbEntity
  8
ALAPSZINTVONAL
  6
-
 62
     2
100
AcDbLine
 10
647720.83
 20
223089.68
 30
0.0
 11
647726.9699999999
 21
223083.97
 31
0.0
  0
LINE
  5
4F9
330
1F8
100
AcDbEntity
  8
ALAPSZINTVONAL
  6
-
 62
     2
100
AcDbLine
 10
647726.9699999999
 20
223083.97
 30
0.0
 11
647732.68
 21
223078.25
 31
0.0
  0
LINE
  5
4FA
330
1F8
100
AcDbEntity
  8
ALAPSZINTVONAL
  6
-
 62
     2
100
AcDbLine
 10
647732.68
 20
223078.25
 30
0.0
 11
647738.28
 21
223072.29
 31
0.0
  0
LINE
  5
4FB
330
1F8
100
AcDbEntity
  8
ALAPSZINTVONAL
  6
-
 62
     2
100
AcDbLine
 10
647738.28
 20
223072.29
 30
0.0
 11
647741.9499999999
 21
223068.08
 31
0.0
  0
LINE
  5
4FC
330
1F8
100
AcDbEntity
  8
ALAPSZINTVONAL
  6
-
 62
     2
100
AcDbLine
 10
647741.9499999999
 20
223068.08
 30
0.0
 11
647743.73
 21
223065.71
 31
99.0
  0
LINE
  5
4FD
330
1F8
100
AcDbEntity
  8
ALAPSZINTVONAL
  6
-
 62
     2
100
AcDbLine
 10
647743.73
 20
223065.71
 30
99.0
 11
647745.3199999999
 21
223063.09
 31
0.0
  0
LINE
  5
4FE
330
1F8
100
AcDbEntity
  8
ALAPSZINTVONAL
  6
-
 62
     2
100
AcDbLine
 10
647745.3199999999
 20
223063.09
 30
0.0
 11
647748.21
 21
223058.52
 31
0.0
  0
LINE
  5
4FF
330
1F8
100
AcDbEntity
  8
ALAPSZINTVONAL
  6
-
 62
     2
100
AcDbLine
 10
647748.21
 20
223058.52
 30
0.0
 11
647749.77
 21
223055.27
 31
0.0
  0
LINE
  5
500
330
1F8
100
AcDbEntity
  8
ALAPSZINTVONAL
  6
-
 62
     2
100
AcDbLine
 10
647749.77
 20
223055.27
 30
0.0
 11
647750.75
 21
223053.15
 31
99.0
  0
LINE
  5
501
330
1F8
100
AcDbEntity
  8
ALAPSZINTVONAL
  6
-
 62
     2
100
AcDbLine
 10
647750.75
 20
223053.15
 30
99.0
 11
647751.82
 21
223049.67
 31
0.0
  0
LINE
  5
502
330
1F8
100
AcDbEntity
  8
ALAPSZINTVONAL
  6
-
 62
     2
100
AcDbLine
 10
647751.82
 20
223049.67
 30
0.0
 11
647754.34
 21
223041.13
 31
0.0
  0
LINE
  5
503
330
1F8
100
AcDbEntity
  8
ALAPSZINTVONAL
  6
-
 62
     2
100
AcDbLine
 10
647754.34
 20
223041.13
 30
0.0
 11
647755.37
 21
223035.59
 31
0.0
  0
LINE
  5
504
330
1F8
100
AcDbEntity
  8
ALAPSZINTVONAL
  6
-
 62
     2
100
AcDbLine
 10
647755.37
 20
223035.59
 30
0.0
 11
647756.6899999999
 21
223030.36
 31
0.0
  0
LINE
  5
505
330
1F8
100
AcDbEntity
  8
ALAPSZINTVONAL
  6
-
 62
     2
100
AcDbLine
 10
647756.6899999999
 20
223030.36
 30
0.0
 11
647757.21
 21
223027.2600000001
 31
99.0
  0
LINE
  5
506
330
1F8
100
AcDbEntity
  8
ALAPSZINTVONAL
  6
-
 62
     2
100
AcDbLine
 10
647757.21
 20
223027.2600000001
 30
99.0
 11
647756.93
 21
223025.97
 31
0.0
  0
LINE
  5
507
330
1F8
100
AcDbEntity
  8
ALAPSZINTVONAL
  6
-
 62
     2
100
AcDbLine
 10
647756.93
 20
223025.97
 30
0.0
 11
647756.6899999999
 21
223024.94
 31
0.0
  0
LINE
  5
508
330
1F8
100
AcDbEntity
  8
ALAPSZINTVONAL
  6
-
 62
     2
100
AcDbLine
 10
647756.6899999999
 20
223024.94
 30
0.0
 11
647756.6800000001
 21
223024.49
 31
99.0
  0
LINE
  5
509
330
1F8
100
AcDbEntity
  8
ALAPSZINTVONAL
  6
-
 62
     2
100
AcDbLine
 10
647756.6800000001
 20
223024.49
 30
99.0
 11
647757.23
 21
223023.86
 31
0.0
  0
LINE
  5
50A
330
1F8
100
AcDbEntity
  8
ALAPSZINTVONAL
  6
-
 62
     2
100
AcDbLine
 10
647757.23
 20
223023.86
 30
0.0
 11
647758.3000000001
 21
223023.42
 31
99.0
  0
LINE
  5
50B
330
1F8
100
AcDbEntity
  8
FŐSZINTVONAL
  6
-
 62
     7
100
AcDbLine
 10
647811.02
 20
223002.65
 30
0.0
 11
647811.02
 21
223001.41
 31
0.0
  0
LINE
  5
50C
330
1F8
100
AcDbEntity
  8
FŐSZINTVONAL
  6
-
 62
     7
100
AcDbLine
 10
647822.11
 20
223012.79
 30
0.0
 11
647822.84
 21
223012.94
 31
100.0
  0
LINE
  5
50D
330
1F8
100
AcDbEntity
  8
FŐSZINTVONAL
  6
-
 62
     7
100
AcDbLine
 10
647820.9800000001
 20
223012.63
 30
0.0
 11
647822.11
 21
223012.79
 31
0.0
  0
LINE
  5
50E
330
1F8
100
AcDbEntity
  8
FŐSZINTVONAL
  6
-
 62
     7
100
AcDbLine
 10
647819.6200000001
 20
223012.39
 30
100.0
 11
647820.9800000001
 21
223012.63
 31
0.0
  0
LINE
  5
50F
330
1F8
100
AcDbEntity
  8
FŐSZINTVONAL
  6
-
 62
     7
100
AcDbLine
 10
647814.41
 20
223010.17
 30
100.0
 11
647815.37
 21
223010.74
 31
0.0
  0
LINE
  5
510
330
1F8
100
AcDbEntity
  8
FŐSZINTVONAL
  6
-
 62
     7
100
AcDbLine
 10
647812.89
 20
223008.46
 30
100.0
 11
647813.63
 21
223009.4
 31
0.0
  0
LINE
  5
511
330
1F8
100
AcDbEntity
  8
FŐSZINTVONAL
  6
-
 62
     7
100
AcDbLine
 10
647813.63
 20
223009.4
 30
0.0
 11
647814.41
 21
223010.17
 31
100.0
  0
LINE
  5
512
330
1F8
100
AcDbEntity
  8
FŐSZINTVONAL
  6
-
 62
     7
100
AcDbLine
 10
647823.71
 20
223013.21
 30
0.0
 11
647822.84
 21
223012.94
 31
100.0
  0
LINE
  5
513
330
1F8
100
AcDbEntity
  8
FŐSZINTVONAL
  6
-
 62
     7
100
AcDbLine
 10
647811.02
 20
223002.65
 30
0.0
 11
647811.5100000001
 21
223004.97
 31
0.0
  0
LINE
  5
514
330
1F8
100
AcDbEntity
  8
FŐSZINTVONAL
  6
-
 62
     7
100
AcDbLine
 10
647811.5100000001
 20
223004.97
 30
0.0
 11
647811.98
 21
223006.92
 31
100.0
  0
LINE
  5
515
330
1F8
100
AcDbEntity
  8
FŐSZINTVONAL
  6
-
 62
     7
100
AcDbLine
 10
647811.98
 20
223006.92
 30
100.0
 11
647812.4300000001
 21
223007.77
 31
0.0
  0
LINE
  5
516
330
1F8
100
AcDbEntity
  8
FŐSZINTVONAL
  6
-
 62
     7
100
AcDbLine
 10
647812.4300000001
 20
223007.77
 30
0.0
 11
647812.89
 21
223008.46
 31
100.0
  0
LINE
  5
517
330
1F8
100
AcDbEntity
  8
FELEZŐSZINTVONAL
  6
0_18_-_SZAGGATOTT__2-1_
 62
     5
100
AcDbLine
 10
647808.53
 20
223011.67
 30
99.50000000000001
 11
647808.1
 21
223009.5
 31
0.0
  0
LINE
  5
518
330
1F8
100
AcDbEntity
  8
FELEZŐSZINTVONAL
  6
0_18_-_SZAGGATOTT__2-1_
 62
     5
100
AcDbLine
 10
647803.5600000001
 20
223037.02
 30
99.50000000000001
 11
647806.5100000001
 21
223034.92
 31
0.0
  0
LINE
  5
519
330
1F8
100
AcDbEntity
  8
FELEZŐSZINTVONAL
  6
0_18_-_SZAGGATOTT__2-1_
 62
     5
100
AcDbLine
 10
647808.1
 20
223009.5
 30
0.0
 11
647805.69
 21
223004.79
 31
0.0
  0
LINE
  5
51A
330
1F8
100
AcDbEntity
  8
FELEZŐSZINTVONAL
  6
0_18_-_SZAGGATOTT__2-1_
 62
     5
100
AcDbLine
 10
647845.38
 20
223034.88
 30
99.50000000000001
 11
647843.4100000001
 21
223033.75
 31
99.50000000000001
  0
LINE
  5
51B
330
1F8
100
AcDbEntity
  8
FELEZŐSZINTVONAL
  6
0_18_-_SZAGGATOTT__2-1_
 62
     5
100
AcDbLine
 10
647843.4100000001
 20
223033.75
 30
99.50000000000001
 11
647838.6800000001
 21
223031.03
 31
0.0
  0
LINE
  5
51C
330
1F8
100
AcDbEntity
  8
FELEZŐSZINTVONAL
  6
0_18_-_SZAGGATOTT__2-1_
 62
     5
100
AcDbLine
 10
647838.6800000001
 20
223031.03
 30
0.0
 11
647832.7800000001
 21
223028.39
 31
0.0
  0
LINE
  5
51D
330
1F8
100
AcDbEntity
  8
FELEZŐSZINTVONAL
  6
0_18_-_SZAGGATOTT__2-1_
 62
     5
100
AcDbLine
 10
647832.7800000001
 20
223028.39
 30
0.0
 11
647827.66
 21
223026.83
 31
0.0
  0
LINE
  5
51E
330
1F8
100
AcDbEntity
  8
FELEZŐSZINTVONAL
  6
0_18_-_SZAGGATOTT__2-1_
 62
     5
100
AcDbLine
 10
647827.66
 20
223026.83
 30
0.0
 11
647825.1
 21
223025.98
 31
0.0
  0
LINE
  5
51F
330
1F8
100
AcDbEntity
  8
FELEZŐSZINTVONAL
  6
0_18_-_SZAGGATOTT__2-1_
 62
     5
100
AcDbLine
 10
647825.1
 20
223025.98
 30
0.0
 11
647823.0299999999
 21
223025.2
 31
99.50000000000001
  0
LINE
  5
520
330
1F8
100
AcDbEntity
  8
FELEZŐSZINTVONAL
  6
0_18_-_SZAGGATOTT__2-1_
 62
     5
100
AcDbLine
 10
647823.0299999999
 20
223025.2
 30
99.50000000000001
 11
647820.42
 21
223024.24
 31
0.0
  0
LINE
  5
521
330
1F8
100
AcDbEntity
  8
FELEZŐSZINTVONAL
  6
0_18_-_SZAGGATOTT__2-1_
 62
     5
100
AcDbLine
 10
647820.42
 20
223024.24
 30
0.0
 11
647818.54
 21
223023.26
 31
99.50000000000001
  0
LINE
  5
522
330
1F8
100
AcDbEntity
  8
FELEZŐSZINTVONAL
  6
0_18_-_SZAGGATOTT__2-1_
 62
     5
100
AcDbLine
 10
647818.54
 20
223023.26
 30
99.50000000000001
 11
647817.97
 21
223022.23
 31
0.0
  0
LINE
  5
523
330
1F8
100
AcDbEntity
  8
FELEZŐSZINTVONAL
  6
0_18_-_SZAGGATOTT__2-1_
 62
     5
100
AcDbLine
 10
647817.97
 20
223022.23
 30
0.0
 11
647817.38
 21
223021.34
 31
0.0
  0
LINE
  5
524
330
1F8
100
AcDbEntity
  8
FELEZŐSZINTVONAL
  6
0_18_-_SZAGGATOTT__2-1_
 62
     5
100
AcDbLine
 10
647817.38
 20
223021.34
 30
0.0
 11
647816.6300000001
 21
223021.26
 31
99.50000000000001
  0
LINE
  5
525
330
1F8
100
AcDbEntity
  8
FELEZŐSZINTVONAL
  6
0_18_-_SZAGGATOTT__2-1_
 62
     5
100
AcDbLine
 10
647816.6300000001
 20
223021.26
 30
99.50000000000001
 11
647816.1599999999
 21
223021.68
 31
0.0
  0
LINE
  5
526
330
1F8
100
AcDbEntity
  8
FELEZŐSZINTVONAL
  6
0_18_-_SZAGGATOTT__2-1_
 62
     5
100
AcDbLine
 10
647816.1599999999
 20
223021.68
 30
0.0
 11
647816.49
 21
223022.83
 31
0.0
  0
LINE
  5
527
330
1F8
100
AcDbEntity
  8
FELEZŐSZINTVONAL
  6
0_18_-_SZAGGATOTT__2-1_
 62
     5
100
AcDbLine
 10
647816.49
 20
223022.83
 30
0.0
 11
647817.14
 21
223024.19
 31
99.50000000000001
  0
LINE
  5
528
330
1F8
100
AcDbEntity
  8
FELEZŐSZINTVONAL
  6
0_18_-_SZAGGATOTT__2-1_
 62
     5
100
AcDbLine
 10
647817.14
 20
223024.19
 30
99.50000000000001
 11
647817.23
 21
223025.13
 31
0.0
  0
LINE
  5
529
330
1F8
100
AcDbEntity
  8
FELEZŐSZINTVONAL
  6
0_18_-_SZAGGATOTT__2-1_
 62
     5
100
AcDbLine
 10
647817.23
 20
223025.13
 30
0.0
 11
647815.4499999999
 21
223027.84
 31
0.0
  0
LINE
  5
52A
330
1F8
100
AcDbEntity
  8
FELEZŐSZINTVONAL
  6
0_18_-_SZAGGATOTT__2-1_
 62
     5
100
AcDbLine
 10
647815.4499999999
 20
223027.84
 30
0.0
 11
647811.9599999999
 21
223030.06
 31
0.0
  0
LINE
  5
52B
330
1F8
100
AcDbEntity
  8
FELEZŐSZINTVONAL
  6
0_18_-_SZAGGATOTT__2-1_
 62
     5
100
AcDbLine
 10
647811.9599999999
 20
223030.06
 30
0.0
 11
647809.8299999999
 21
223031.41
 31
99.50000000000001
  0
LINE
  5
52C
330
1F8
100
AcDbEntity
  8
FELEZŐSZINTVONAL
  6
0_18_-_SZAGGATOTT__2-1_
 62
     5
100
AcDbLine
 10
647809.8299999999
 20
223031.41
 30
99.50000000000001
 11
647808.1800000001
 21
223032.81
 31
0.0
  0
LINE
  5
52D
330
1F8
100
AcDbEntity
  8
FELEZŐSZINTVONAL
  6
0_18_-_SZAGGATOTT__2-1_
 62
     5
100
AcDbLine
 10
647808.1800000001
 20
223032.81
 30
0.0
 11
647806.5100000001
 21
223034.92
 31
0.0
  0
LINE
  5
52E
330
1F8
100
AcDbEntity
  8
FELEZŐSZINTVONAL
  6
0_18_-_SZAGGATOTT__2-1_
 62
     5
100
AcDbLine
 10
647800.9
 20
223026.46
 30
0.0
 11
647803.36
 21
223023.69
 31
99.50000000000001
  0
LINE
  5
52F
330
1F8
100
AcDbEntity
  8
FELEZŐSZINTVONAL
  6
0_18_-_SZAGGATOTT__2-1_
 62
     5
100
AcDbLine
 10
647803.36
 20
223023.69
 30
99.50000000000001
 11
647804.58
 21
223021.19
 31
0.0
  0
LINE
  5
530
330
1F8
100
AcDbEntity
  8
FELEZŐSZINTVONAL
  6
0_18_-_SZAGGATOTT__2-1_
 62
     5
100
AcDbLine
 10
647803.5600000001
 20
223037.02
 30
99.50000000000001
 11
647801.39
 21
223036.71
 31
0.0
  0
LINE
  5
531
330
1F8
100
AcDbEntity
  8
FELEZŐSZINTVONAL
  6
0_18_-_SZAGGATOTT__2-1_
 62
     5
100
AcDbLine
 10
647801.39
 20
223036.71
 30
0.0
 11
647798.5699999999
 21
223035.59
 31
0.0
  0
LINE
  5
532
330
1F8
100
AcDbEntity
  8
FELEZŐSZINTVONAL
  6
0_18_-_SZAGGATOTT__2-1_
 62
     5
100
AcDbLine
 10
647805.69
 20
223004.79
 30
0.0
 11
647803.6
 21
223001.59
 31
99.50000000000001
  0
LINE
  5
533
330
1F8
100
AcDbEntity
  8
FELEZŐSZINTVONAL
  6
0_18_-_SZAGGATOTT__2-1_
 62
     5
100
AcDbLine
 10
647803.6
 20
223001.59
 30
99.50000000000001
 11
647800.5300000001
 21
222996.7
 31
0.0
  0
LINE
  5
534
330
1F8
100
AcDbEntity
  8
FELEZŐSZINTVONAL
  6
0_18_-_SZAGGATOTT__2-1_
 62
     5
100
AcDbLine
 10
647804.58
 20
223021.19
 30
0.0
 11
647806.4300000001
 21
223017.41
 31
0.0
  0
LINE
  5
535
330
1F8
100
AcDbEntity
  8
FELEZŐSZINTVONAL
  6
0_18_-_SZAGGATOTT__2-1_
 62
     5
100
AcDbLine
 10
647806.4300000001
 20
223017.41
 30
0.0
 11
647808.14
 21
223013.81
 31
0.0
  0
LINE
  5
536
330
1F8
100
AcDbEntity
  8
FELEZŐSZINTVONAL
  6
0_18_-_SZAGGATOTT__2-1_
 62
     5
100
AcDbLine
 10
647808.14
 20
223013.81
 30
0.0
 11
647808.53
 21
223011.67
 31
99.50000000000001
  0
LINE
  5
537
330
1F8
100
AcDbEntity
  8
FELEZŐSZINTVONAL
  6
0_18_-_SZAGGATOTT__2-1_
 62
     5
100
AcDbLine
 10
647800.5300000001
 20
222996.7
 30
0.0
 11
647795.11
 21
222988.94
 31
0.0
  0
LINE
  5
538
330
1F8
100
AcDbEntity
  8
FELEZŐSZINTVONAL
  6
0_18_-_SZAGGATOTT__2-1_
 62
     5
100
AcDbLine
 10
647790.8000000001
 20
222984.83
 30
99.50000000000001
 11
647790.2900000001
 21
222983.56
 31
0.0
  0
LINE
  5
539
330
1F8
100
AcDbEntity
  8
FELEZŐSZINTVONAL
  6
0_18_-_SZAGGATOTT__2-1_
 62
     5
100
AcDbLine
 10
647795.11
 20
222988.94
 30
0.0
 11
647792.4699999999
 21
222985.74
 31
99.50000000000001
  0
LINE
  5
53A
330
1F8
100
AcDbEntity
  8
FELEZŐSZINTVONAL
  6
0_18_-_SZAGGATOTT__2-1_
 62
     5
100
AcDbLine
 10
647792.4699999999
 20
222985.74
 30
99.50000000000001
 11
647791.66
 21
222985.2300000001
 31
0.0
  0
LINE
  5
53B
330
1F8
100
AcDbEntity
  8
FELEZŐSZINTVONAL
  6
0_18_-_SZAGGATOTT__2-1_
 62
     5
100
AcDbLine
 10
647791.66
 20
222985.2300000001
 30
0.0
 11
647790.8000000001
 21
222984.83
 31
99.50000000000001
  0
LINE
  5
53C
330
1F8
100
AcDbEntity
  8
FELEZŐSZINTVONAL
  6
0_18_-_SZAGGATOTT__2-1_
 62
     5
100
AcDbLine
 10
647790.35
 20
222982.21
 30
0.0
 11
647790.2900000001
 21
222983.56
 31
0.0
  0
LINE
  5
53D
330
1F8
100
AcDbEntity
  8
FELEZŐSZINTVONAL
  6
0_18_-_SZAGGATOTT__2-1_
 62
     5
100
AcDbLine
 10
647797.12
 20
223031.32
 30
0.0
 11
647797.4399999999
 21
223029.86
 31
99.50000000000001
  0
LINE
  5
53E
330
1F8
100
AcDbEntity
  8
FELEZŐSZINTVONAL
  6
0_18_-_SZAGGATOTT__2-1_
 62
     5
100
AcDbLine
 10
647797.7199999999
 20
223034.57
 30
99.50000000000001
 11
647797.12
 21
223031.32
 31
0.0
  0
LINE
  5
53F
330
1F8
100
AcDbEntity
  8
FELEZŐSZINTVONAL
  6
0_18_-_SZAGGATOTT__2-1_
 62
     5
100
AcDbLine
 10
647798.5699999999
 20
223035.59
 30
0.0
 11
647797.7199999999
 21
223034.57
 31
99.50000000000001
  0
LINE
  5
540
330
1F8
100
AcDbEntity
  8
FELEZŐSZINTVONAL
  6
0_18_-_SZAGGATOTT__2-1_
 62
     5
100
AcDbLine
 10
647797.4399999999
 20
223029.86
 30
99.50000000000001
 11
647800.9
 21
223026.46
 31
0.0
  0
LINE
  5
541
330
1F8
100
AcDbEntity
  8
GÁZVEZETÉK___FELSZÍN_ALATTI_
  6
0_18_-_SZAGGATOTT__10-2_
 62
    51
100
AcDbLine
 10
647670.4300000001
 20
222887.54
 30
99.50700000000001
 11
647619.26
 21
223099.28
 31
99.23799999999999
  0
LINE
  5
542
330
1F8
100
AcDbEntity
  8
SZABADON_ÁLLÓ_FAL__KERÍTÉSLÁBAZ
  6
Continuous
100
AcDbLine
 10
647831.02
 20
222999.58
 30
0.0
 11
647825.5200000001
 21
223001.47
 31
0.0
  0
LINE
  5
543
330
1F8
100
AcDbEntity
  8
SZABADON_ÁLLÓ_FAL__KERÍTÉSLÁBAZ
  6
Continuous
100
AcDbLine
 10
647831.02
 20
222999.58
 30
0.0
 11
647843.62
 21
222999.58
 31
0.0
  0
LINE
  5
544
330
1F8
100
AcDbEntity
  8
INGATLAN_NYILVÁNTARTÁSI_TÉRKÉP_
  6
Continuous
100
AcDbLine
 10
647765.55
 20
222973.72
 30
0.0
 11
647769.47
 21
222969.59
 31
0.0
  0
LINE
  5
545
330
1F8
100
AcDbEntity
  8
INGATLAN_NYILVÁNTARTÁSI_TÉRKÉP_
  6
Continuous
100
AcDbLine
 10
647765.55
 20
222973.72
 30
0.0
 11
647756.1
 21
222973.72
 31
0.0
  0
LINE
  5
546
330
1F8
100
AcDbEntity
  8
INGATLAN_NYILVÁNTARTÁSI_TÉRKÉP_
  6
Continuous
100
AcDbLine
 10
647713.88
 20
222920.81
 30
0.0
 11
647717.47
 21
222918.31
 31
0.0
  0
LINE
  5
547
330
1F8
100
AcDbEntity
  8
INGATLAN_NYILVÁNTARTÁSI_TÉRKÉP_
  6
Continuous
100
AcDbLine
 10
647713.88
 20
222920.81
 30
0.0
 11
647702.33
 21
222920.81
 31
0.0
  0
LINE
  5
548
330
1F8
100
AcDbEntity
  8
GÁZVEZETÉK___FELSZÍN_ALATTI_
  6
Continuous
100
AcDbLine
 10
647672.56
 20
222891.14
 30
0.0
 11
647670.49
 21
222887.74
 31
0.0
  0
LINE
  5
549
330
1F8
100
AcDbEntity
  8
GÁZVEZETÉK___FELSZÍN_ALATTI_
  6
Continuous
100
AcDbLine
 10
647672.56
 20
222891.14
 30
0.0
 11
647684.11
 21
222891.14
 31
0.0
  0
LINE
  5
54A
330
1F8
100
AcDbEntity
  8
GÁZVEZETÉK___FELSZÍN_ALATTI_
  6
Continuous
100
AcDbLine
 10
647622.2400000001
 20
223101.92
 30
0.0
 11
647619.13
 21
223099.55
 31
0.0
  0
LINE
  5
54B
330
1F8
100
AcDbEntity
  8
GÁZVEZETÉK___FELSZÍN_ALATTI_
  6
Continuous
100
AcDbLine
 10
647622.2400000001
 20
223101.92
 30
0.0
 11
647633.79
 21
223101.92
 31
0.0
  0
TEXT
  5
54C
330
1F8
100
AcDbEntity
  8
ELŐZETES_MINŐSÉGI_OSZTÁY
  6
Continuous
 62
   241
100
AcDbText
 10
647806.5
 20
223126.5
 30
0.0
 40
2.0
  1
(út)
 50
315.9
 51
15.0
  7
ELŐZETES_MIN__OSZT_
100
AcDbText
  0
TEXT
  5
54D
330
1F8
100
AcDbEntity
  8
INGATLAN_NYILVÁNTARTÁSI_TÉRKÉP_
  6
Continuous
 62
     8
100
AcDbText
 10
647856.8800000001
 20
223058.2
 30
0.0
 40
1.5
  1
99.40
 51
15.0
  7
ING_-NYILVÁNTARTÁSI_TÉRKÉP_MÉRE
100
AcDbText
  0
TEXT
  5
54E
330
1F8
100
AcDbEntity
  8
INGATLAN_NYILVÁNTARTÁSI_TÉRKÉP_
  6
Continuous
 62
     8
100
AcDbText
 10
647838.27
 20
223043.8
 30
0.0
 40
1.5
  1
98.94
 51
15.0
  7
ING_-NYILVÁNTARTÁSI_TÉRKÉP_MÉRE
100
AcDbText
  0
TEXT
  5
54F
330
1F8
100
AcDbEntity
  8
ALRÉSZLET_MŰVELÉSI_ÁG
  6
Continuous
 62
   112
100
AcDbText
 10
647825.2900000001
 20
223160.86
 30
0.0
 40
2.0
  1
Sz
 51
15.0
  7
ALRÉSZLET_MŰVELÉSI_ÁGA
100
AcDbText
  0
TEXT
  5
550
330
1F8
100
AcDbEntity
  8
ELŐZETES_HELYRALYZISZÁM
  6
Continuous
 62
     1
100
AcDbText
 10
647822.85
 20
223166.78
 30
0.0
 40
2.0
  1
(12502)
 51
15.0
  7
ELŐZETES_HRSZ
100
AcDbText
  0
TEXT
  5
551
330
1F8
100
AcDbEntity
  8
INGATLAN_NYILVÁNTARTÁSI_TÉRKÉP_
  6
Continuous
 62
     8
100
AcDbText
 10
647838.5
 20
223018.41
 30
0.0
 40
1.5
  1
100.00
 51
15.0
  7
ING_-NYILVÁNTARTÁSI_TÉRKÉP_MÉRE
100
AcDbText
  0
TEXT
  5
552
330
1F8
100
AcDbEntity
  8
BURKOLAT___ÚT__JÁRDA_
  6
Continuous
 62
   134
100
AcDbText
 10
647828.81
 20
223013.15
 30
0.0
 40
1.5
  1
földút
 50
44.9
 51
15.0
  7
ING_-NYILVÁNTARTÁSI_TÉRKÉP_MÉRE
100
AcDbText
  0
TEXT
  5
553
330
1F8
100
AcDbEntity
  8
HELYRAJZISZÁM
  6
Continuous
 62
   100
100
AcDbText
 10
647821.5600000002
 20
223172.57
 30
0.0
 40
2.0
  1
0298/128
 51
15.0
  7
HELYRAJZI_SZÁM__JOGERŐS_
100
AcDbText
  0
TEXT
  5
554
330
1F8
100
AcDbEntity
  8
INGATLAN_NYILVÁNTARTÁSI_TÉRKÉP_
  6
Continuous
 62
     8
100
AcDbText
 10
647858.0500000001
 20
223062.63
 30
0.0
 40
1.5
  1
villany-
 51
15.0
  7
ING_-NYILVÁNTARTÁSI_TÉRKÉP_MÉRE
100
AcDbText
  0
TEXT
  5
555
330
1F8
100
AcDbEntity
  8
INGATLAN_NYILVÁNTARTÁSI_TÉRKÉP_
  6
Continuous
 62
     8
100
AcDbText
 10
647858.0500000001
 20
223060.98
 30
0.0
 40
1.5
  1
oszlop
 51
15.0
  7
ING_-NYILVÁNTARTÁSI_TÉRKÉP_MÉRE
100
AcDbText
  0
TEXT
  5
556
330
1F8
100
AcDbEntity
  8
INGATLAN_NYILVÁNTARTÁSI_TÉRKÉP_
  6
Continuous
 62
     8
100
AcDbText
 10
647804.0
 20
223027.55
 30
0.0
 40
1.5
  1
villany-
 51
15.0
  7
ING_-NYILVÁNTARTÁSI_TÉRKÉP_MÉRE
100
AcDbText
  0
TEXT
  5
557
330
1F8
100
AcDbEntity
  8
INGATLAN_NYILVÁNTARTÁSI_TÉRKÉP_
  6
Continuous
 62
     8
100
AcDbText
 10
647804.0
 20
223025.9
 30
0.0
 40
1.5
  1
oszlop
 51
15.0
  7
ING_-NYILVÁNTARTÁSI_TÉRKÉP_MÉRE
100
AcDbText
  0
TEXT
  5
558
330
1F8
100
AcDbEntity
  8
INGATLAN_NYILVÁNTARTÁSI_TÉRKÉP_
  6
Continuous
 62
     8
100
AcDbText
 10
647805.27
 20
223074.93
 30
0.0
 40
1.5
  1
98.74
 51
15.0
  7
ING_-NYILVÁNTARTÁSI_TÉRKÉP_MÉRE
100
AcDbText
  0
TEXT
  5
559
330
1F8
100
AcDbEntity
  8
INGATLAN_NYILVÁNTARTÁSI_TÉRKÉP_
  6
Continuous
 62
     8
100
AcDbText
 10
647808.4100000001
 20
223014.35
 30
0.0
 40
1.5
  1
99.54
 51
15.0
  7
ING_-NYILVÁNTARTÁSI_TÉRKÉP_MÉRE
100
AcDbText
  0
TEXT
  5
55A
330
1F8
100
AcDbEntity
  8
INGATLAN_NYILVÁNTARTÁSI_TÉRKÉP_
  6
Continuous
 62
     8
100
AcDbText
 10
647841.18
 20
223010.75
 30
0.0
 40
1.5
  1
100.00
 51
15.0
  7
ING_-NYILVÁNTARTÁSI_TÉRKÉP_MÉRE
100
AcDbText
  0
TEXT
  5
55B
330
1F8
100
AcDbEntity
  8
INGATLAN_NYILVÁNTARTÁSI_TÉRKÉP_
  6
Continuous
 62
     8
100
AcDbText
 10
647826.56
 20
223006.93
 30
0.0
 40
1.5
  1
100.32
 51
15.0
  7
ING_-NYILVÁNTARTÁSI_TÉRKÉP_MÉRE
100
AcDbText
  0
TEXT
  5
55C
330
1F8
100
AcDbEntity
  8
INGATLAN_NYILVÁNTARTÁSI_TÉRKÉP_
  6
Continuous
 62
     8
100
AcDbText
 10
647847.46
 20
223033.85
 30
0.0
 40
1.5
  1
99.55
 51
15.0
  7
ING_-NYILVÁNTARTÁSI_TÉRKÉP_MÉRE
100
AcDbText
  0
TEXT
  5
55D
330
1F8
100
AcDbEntity
  8
INGATLAN_NYILVÁNTARTÁSI_TÉRKÉP_
  6
Continuous
 62
     8
100
AcDbText
 10
647818.06
 20
223025.42
 30
0.0
 40
1.5
  1
99.49
 51
15.0
  7
ING_-NYILVÁNTARTÁSI_TÉRKÉP_MÉRE
100
AcDbText
  0
TEXT
  5
55E
330
1F8
100
AcDbEntity
  8
INGATLAN_NYILVÁNTARTÁSI_TÉRKÉP_
  6
Continuous
 62
     8
100
AcDbText
 10
647824.5699999999
 20
223034.46
 30
0.0
 40
1.5
  1
99.18
 51
15.0
  7
ING_-NYILVÁNTARTÁSI_TÉRKÉP_MÉRE
100
AcDbText
  0
TEXT
  5
55F
330
1F8
100
AcDbEntity
  8
INGATLAN_NYILVÁNTARTÁSI_TÉRKÉP_
  6
Continuous
 62
     8
100
AcDbText
 10
647805.11
 20
223022.51
 30
0.0
 40
1.5
  1
99.59
 51
15.0
  7
ING_-NYILVÁNTARTÁSI_TÉRKÉP_MÉRE
100
AcDbText
  0
TEXT
  5
560
330
1F8
100
AcDbEntity
  8
INGATLAN_NYILVÁNTARTÁSI_TÉRKÉP_
  6
Continuous
 62
     8
100
AcDbText
 10
647828.5393234876
 20
223018.6951972442
 30
0.0
 40
1.5
  1
74.53
 50
42.9
 51
15.0
  7
ING_-NYILVÁNTARTÁSI_TÉRKÉP_MÉRE
 72
     1
 11
647830.46
 21
223020.48
 31
0.0
100
AcDbText
  0
TEXT
  5
561
330
1F8
100
AcDbEntity
  8
INGATLAN_NYILVÁNTARTÁSI_TÉRKÉP_
  6
Continuous
 62
     8
100
AcDbText
 10
647814.61
 20
223008.23
 30
0.0
 40
1.5
  1
100.10
 51
15.0
  7
ING_-NYILVÁNTARTÁSI_TÉRKÉP_MÉRE
100
AcDbText
  0
TEXT
  5
562
330
1F8
100
AcDbEntity
  8
INGATLAN_NYILVÁNTARTÁSI_TÉRKÉP_
  6
Continuous
 62
     8
100
AcDbText
 10
647849.3
 20
223031.1700000001
 30
0.0
 40
1.5
  1
99.67
 51
15.0
  7
ING_-NYILVÁNTARTÁSI_TÉRKÉP_MÉRE
100
AcDbText
  0
TEXT
  5
563
330
1F8
100
AcDbEntity
  8
SZABADON_ÁLLÓ_FAL__KERÍTÉSLÁBAZ
  6
Continuous
 62
    57
100
AcDbText
 10
647847.1500000001
 20
223020.75
 30
0.0
 40
1.5
  1
kerités
 50
44.4
 51
15.0
  7
ING_-NYILVÁNTARTÁSI_TÉRKÉP_MÉRE
100
AcDbText
  0
TEXT
  5
564
330
1F8
100
AcDbEntity
  8
INGATLAN_NYILVÁNTARTÁSI_TÉRKÉP_
  6
Continuous
 62
     8
100
AcDbText
 10
647819.1800000001
 20
223013.13
 30
0.0
 40
1.5
  1
100
 50
203.2
 51
15.0
  7
ING_-NYILVÁNTARTÁSI_TÉRKÉP_MÉRE
100
AcDbText
  0
TEXT
  5
565
330
1F8
100
AcDbEntity
  8
INGATLAN_NYILVÁNTARTÁSI_TÉRKÉP_
  6
Continuous
 62
     8
100
AcDbText
 10
647849.8900000001
 20
223036.06
 30
0.0
 40
1.5
  1
karó
 51
15.0
  7
ING_-NYILVÁNTARTÁSI_TÉRKÉP_MÉRE
100
AcDbText
  0
TEXT
  5
566
330
1F8
100
AcDbEntity
  8
INGATLAN_NYILVÁNTARTÁSI_TÉRKÉP_
  6
Continuous
 62
     8
100
AcDbText
 10
647814.69
 20
222995.97
 30
0.0
 40
1.5
  1
100.06
 51
15.0
  7
ING_-NYILVÁNTARTÁSI_TÉRKÉP_MÉRE
100
AcDbText
  0
TEXT
  5
567
330
1F8
100
AcDbEntity
  8
INGATLAN_NYILVÁNTARTÁSI_TÉRKÉP_
  6
Continuous
 62
     8
100
AcDbText
 10
647813.15
 20
222999.65
 30
0.0
 40
1.5
  1
100.06
 51
15.0
  7
ING_-NYILVÁNTARTÁSI_TÉRKÉP_MÉRE
100
AcDbText
  0
TEXT
  5
568
330
1F8
100
AcDbEntity
  8
ALRÉSZLET_MŰVELÉSI_ÁG
  6
Continuous
 62
   112
100
AcDbText
 10
647804.1800000001
 20
222982.03
 30
0.0
 40
2.0
  1
út
 50
41.39999999999999
 51
15.0
  7
ALRÉSZLET_MŰVELÉSI_ÁGA
100
AcDbText
  0
TEXT
  5
569
330
1F8
100
AcDbEntity
  8
SZABADON_ÁLLÓ_FAL__KERÍTÉSLÁBAZ
  6
Continuous
 62
    57
100
AcDbText
 10
647831.02
 20
223000.0240654843
 30
0.0
 40
1.5
  1
bekerített 
 51
15.0
  7
ING_-NYILVÁNTARTÁSI_TÉRKÉP_MÉRE
 11
647831.02
 21
222999.58
 31
0.0
100
AcDbText
 73
     1
  0
TEXT
  5
56A
330
1F8
100
AcDbEntity
  8
SZABADON_ÁLLÓ_FAL__KERÍTÉSLÁBAZ
  6
Continuous
 62
    57
100
AcDbText
 10
647831.02
 20
222998.3740654843
 30
0.0
 40
1.5
  1
terület
 51
15.0
  7
ING_-NYILVÁNTARTÁSI_TÉRKÉP_MÉRE
 11
647831.02
 21
222997.93
 31
0.0
100
AcDbText
 73
     1
  0
TEXT
  5
56B
330
1F8
100
AcDbEntity
  8
INGATLAN_NYILVÁNTARTÁSI_TÉRKÉP_
  6
Continuous
 62
     8
100
AcDbText
 10
647787.036182131
 20
222980.4918587737
 30
0.0
 40
1.5
  1
6.36
 50
42.9
 51
15.0
  7
ING_-NYILVÁNTARTÁSI_TÉRKÉP_MÉRE
 72
     1
 11
647788.5300000001
 21
222981.88
 31
0.0
100
AcDbText
  0
TEXT
  5
56C
330
1F8
100
AcDbEntity
  8
INGATLAN_NYILVÁNTARTÁSI_TÉRKÉP_
  6
Continuous
 62
     8
100
AcDbText
 10
647762.6893234876
 20
222957.5351972442
 30
0.0
 40
1.5
  1
75.75
 50
42.9
 51
15.0
  7
ING_-NYILVÁNTARTÁSI_TÉRKÉP_MÉRE
 72
     1
 11
647764.61
 21
222959.32
 31
0.0
100
AcDbText
  0
TEXT
  5
56D
330
1F8
100
AcDbEntity
  8
INGATLAN_NYILVÁNTARTÁSI_TÉRKÉP_
  6
Continuous
 62
     8
100
AcDbText
 10
647723.3993234875
 20
222920.9651972442
 30
0.0
 40
1.5
  1
14.61
 50
42.9
 51
15.0
  7
ING_-NYILVÁNTARTÁSI_TÉRKÉP_MÉRE
 72
     1
 11
647725.3199999999
 21
222922.75
 31
0.0
100
AcDbText
  0
TEXT
  5
56E
330
1F8
100
AcDbEntity
  8
INGATLAN_NYILVÁNTARTÁSI_TÉRKÉP_
  6
Continuous
 62
     8
100
AcDbText
 10
647795.54
 20
222978.32
 30
0.0
 40
1.5
  1
99.58
 51
15.0
  7
ING_-NYILVÁNTARTÁSI_TÉRKÉP_MÉRE
100
AcDbText
  0
TEXT
  5
56F
330
1F8
100
AcDbEntity
  8
INGATLAN_NYILVÁNTARTÁSI_TÉRKÉP_
  6
Continuous
 62
     8
100
AcDbText
 10
647650.79
 20
222985.63
 30
0.0
 40
1.5
  1
99.17
 51
15.0
  7
ING_-NYILVÁNTARTÁSI_TÉRKÉP_MÉRE
100
AcDbText
  0
TEXT
  5
570
330
1F8
100
AcDbEntity
  8
BURKOLAT___ÚT__JÁRDA_
  6
Continuous
 62
   134
100
AcDbText
 10
647747.2699999999
 20
222937.8500000001
 30
0.0
 40
1.5
  1
földút
 50
46.9
 51
15.0
  7
ING_-NYILVÁNTARTÁSI_TÉRKÉP_MÉRE
100
AcDbText
  0
TEXT
  5
571
330
1F8
100
AcDbEntity
  8
HELYRAJZISZÁM
  6
Continuous
 62
   100
100
AcDbText
 10
647771.8800000001
 20
222952.94
 30
0.0
 40
2.0
  1
0298/76
 50
42.9
 51
15.0
  7
HELYRAJZI_SZÁM__JOGERŐS_
100
AcDbText
  0
TEXT
  5
572
330
1F8
100
AcDbEntity
  8
INGATLAN_NYILVÁNTARTÁSI_TÉRKÉP_
  6
Continuous
 62
     8
100
AcDbText
 10
647759.0291950888
 20
222974.1640654843
 30
0.0
 40
1.5
  1
villany-
 51
15.0
  7
ING_-NYILVÁNTARTÁSI_TÉRKÉP_MÉRE
 72
     2
 11
647765.55
 21
222973.72
 31
0.0
100
AcDbText
 73
     1
  0
TEXT
  5
573
330
1F8
100
AcDbEntity
  8
INGATLAN_NYILVÁNTARTÁSI_TÉRKÉP_
  6
Continuous
 62
     8
100
AcDbText
 10
647759.492701228
 20
222972.5140654843
 30
0.0
 40
1.5
  1
oszlop
 51
15.0
  7
ING_-NYILVÁNTARTÁSI_TÉRKÉP_MÉRE
 72
     2
 11
647765.55
 21
222972.07
 31
0.0
100
AcDbText
 73
     1
  0
TEXT
  5
574
330
1F8
100
AcDbEntity
  8
INGATLAN_NYILVÁNTARTÁSI_TÉRKÉP_
  6
Continuous
 62
     8
100
AcDbText
 10
647714.67
 20
222956.0
 30
0.0
 40
1.5
  1
villany-
 51
15.0
  7
ING_-NYILVÁNTARTÁSI_TÉRKÉP_MÉRE
100
AcDbText
  0
TEXT
  5
575
330
1F8
100
AcDbEntity
  8
INGATLAN_NYILVÁNTARTÁSI_TÉRKÉP_
  6
Continuous
 62
     8
100
AcDbText
 10
647714.67
 20
222954.35
 30
0.0
 40
1.5
  1
oszlop
 51
15.0
  7
ING_-NYILVÁNTARTÁSI_TÉRKÉP_MÉRE
100
AcDbText
  0
TEXT
  5
576
330
1F8
100
AcDbEntity
  8
INGATLAN_NYILVÁNTARTÁSI_TÉRKÉP_
  6
Continuous
 62
     8
100
AcDbText
 10
647703.6317053206
 20
222921.2540654843
 30
0.0
 40
1.5
  1
elektromos
 51
15.0
  7
ING_-NYILVÁNTARTÁSI_TÉRKÉP_MÉRE
 72
     2
 11
647713.88
 21
222920.81
 31
0.0
100
AcDbText
 73
     1
  0
TEXT
  5
577
330
1F8
100
AcDbEntity
  8
INGATLAN_NYILVÁNTARTÁSI_TÉRKÉP_
  6
Continuous
 62
     8
100
AcDbText
 10
647706.658308322
 20
222919.6040654843
 30
0.0
 40
1.5
  1
vezeték
 51
15.0
  7
ING_-NYILVÁNTARTÁSI_TÉRKÉP_MÉRE
 72
     2
 11
647713.88
 21
222919.16
 31
0.0
100
AcDbText
 73
     1
  0
TEXT
  5
578
330
1F8
100
AcDbEntity
  8
INGATLAN_NYILVÁNTARTÁSI_TÉRKÉP_
  6
Continuous
 62
     8
100
AcDbText
 10
647707.3571487039
 20
222917.9540654843
 30
0.0
 40
1.5
  1
jelzőkő
 51
15.0
  7
ING_-NYILVÁNTARTÁSI_TÉRKÉP_MÉRE
 72
     2
 11
647713.88
 21
222917.51
 31
0.0
100
AcDbText
 73
     1
  0
TEXT
  5
579
330
1F8
100
AcDbEntity
  8
GÁZVEZETÉK___FELSZÍN_ALATTI_
  6
Continuous
 62
    51
100
AcDbText
 10
647657.32
 20
222948.13
 30
0.0
 40
1.5
  1
gázvezeték
 50
283.6
 51
15.0
  7
ING_-NYILVÁNTARTÁSI_TÉRKÉP_MÉRE
100
AcDbText
  0
TEXT
  5
57A
330
1F8
100
AcDbEntity
  8
GÁZVEZETÉK___FELSZÍN_ALATTI_
  6
Continuous
 62
    51
100
AcDbText
 10
647672.56
 20
222891.5840654844
 30
0.0
 40
1.5
  1
jelzőoszlop
 51
15.0
  7
ING_-NYILVÁNTARTÁSI_TÉRKÉP_MÉRE
 11
647672.56
 21
222891.14
 31
0.0
100
AcDbText
 73
     1
  0
TEXT
  5
57B
330
1F8
100
AcDbEntity
  8
INGATLAN_NYILVÁNTARTÁSI_TÉRKÉP_
  6
Continuous
 62
     8
100
AcDbText
 10
647712.3699999999
 20
222905.03
 30
0.0
 40
1.5
  1
99.50
 51
15.0
  7
ING_-NYILVÁNTARTÁSI_TÉRKÉP_MÉRE
100
AcDbText
  0
TEXT
  5
57C
330
1F8
100
AcDbEntity
  8
INGATLAN_NYILVÁNTARTÁSI_TÉRKÉP_
  6
Continuous
 62
     8
100
AcDbText
 10
647714.67
 20
222902.58
 30
0.0
 40
1.5
  1
99.62
 51
15.0
  7
ING_-NYILVÁNTARTÁSI_TÉRKÉP_MÉRE
100
AcDbText
  0
TEXT
  5
57D
330
1F8
100
AcDbEntity
  8
INGATLAN_NYILVÁNTARTÁSI_TÉRKÉP_
  6
Continuous
 62
     8
100
AcDbText
 10
647727.76
 20
222928.92
 30
0.0
 40
1.5
  1
99.49
 51
15.0
  7
ING_-NYILVÁNTARTÁSI_TÉRKÉP_MÉRE
100
AcDbText
  0
TEXT
  5
57E
330
1F8
100
AcDbEntity
  8
INGATLAN_NYILVÁNTARTÁSI_TÉRKÉP_
  6
Continuous
 62
     8
100
AcDbText
 10
647730.7500000001
 20
222945.35
 30
0.0
 40
1.5
  1
98.97
 51
15.0
  7
ING_-NYILVÁNTARTÁSI_TÉRKÉP_MÉRE
100
AcDbText
  0
TEXT
  5
57F
330
1F8
100
AcDbEntity
  8
INGATLAN_NYILVÁNTARTÁSI_TÉRKÉP_
  6
Continuous
 62
     8
100
AcDbText
 10
647718.8000000001
 20
222914.37
 30
0.0
 40
1.5
  1
99.50
 51
15.0
  7
ING_-NYILVÁNTARTÁSI_TÉRKÉP_MÉRE
100
AcDbText
  0
TEXT
  5
580
330
1F8
100
AcDbEntity
  8
INGATLAN_NYILVÁNTARTÁSI_TÉRKÉP_
  6
Continuous
 62
     8
100
AcDbText
 10
647735.04
 20
222935.62
 30
0.0
 40
1.5
  1
99.36
 51
15.0
  7
ING_-NYILVÁNTARTÁSI_TÉRKÉP_MÉRE
100
AcDbText
  0
TEXT
  5
581
330
1F8
100
AcDbEntity
  8
INGATLAN_NYILVÁNTARTÁSI_TÉRKÉP_
  6
Continuous
 62
     8
100
AcDbText
 10
647721.3299999999
 20
222898.14
 30
0.0
 40
1.5
  1
99.80
 51
15.0
  7
ING_-NYILVÁNTARTÁSI_TÉRKÉP_MÉRE
100
AcDbText
  0
TEXT
  5
582
330
1F8
100
AcDbEntity
  8
INGATLAN_NYILVÁNTARTÁSI_TÉRKÉP_
  6
Continuous
 62
     8
100
AcDbText
 10
647743.61
 20
222929.73
 30
0.0
 40
1.5
  1
99.33
 51
15.0
  7
ING_-NYILVÁNTARTÁSI_TÉRKÉP_MÉRE
100
AcDbText
  0
TEXT
  5
583
330
1F8
100
AcDbEntity
  8
INGATLAN_NYILVÁNTARTÁSI_TÉRKÉP_
  6
Continuous
 62
     8
100
AcDbText
 10
647752.88
 20
222952.63
 30
0.0
 40
1.5
  1
99.31
 51
15.0
  7
ING_-NYILVÁNTARTÁSI_TÉRKÉP_MÉRE
100
AcDbText
  0
TEXT
  5
584
330
1F8
100
AcDbEntity
  8
INGATLAN_NYILVÁNTARTÁSI_TÉRKÉP_
  6
Continuous
 62
     8
100
AcDbText
 10
647766.05
 20
222977.71
 30
0.0
 40
1.5
  1
98.84
 51
15.0
  7
ING_-NYILVÁNTARTÁSI_TÉRKÉP_MÉRE
100
AcDbText
  0
TEXT
  5
585
330
1F8
100
AcDbEntity
  8
INGATLAN_NYILVÁNTARTÁSI_TÉRKÉP_
  6
Continuous
 62
     8
100
AcDbText
 10
647779.9200000001
 20
222977.86
 30
0.0
 40
1.5
  1
99.34
 51
15.0
  7
ING_-NYILVÁNTARTÁSI_TÉRKÉP_MÉRE
100
AcDbText
  0
TEXT
  5
586
330
1F8
100
AcDbEntity
  8
ELŐZETES_HELYRALYZISZÁM
  6
Continuous
 62
     1
100
AcDbText
 10
647784.1999999999
 20
222963.92
 30
0.0
 40
2.0
  1
(12506)
 50
45.0
 51
15.0
  7
ELŐZETES_HRSZ
100
AcDbText
  0
TEXT
  5
587
330
1F8
100
AcDbEntity
  8
INGATLAN_NYILVÁNTARTÁSI_TÉRKÉP_
  6
Continuous
 62
     8
100
AcDbText
 10
647792.56
 20
222982.42
 30
0.0
 40
1.5
  1
99.54
 51
15.0
  7
ING_-NYILVÁNTARTÁSI_TÉRKÉP_MÉRE
100
AcDbText
  0
TEXT
  5
588
330
1F8
100
AcDbEntity
  8
INGATLAN_NYILVÁNTARTÁSI_TÉRKÉP_
  6
Continuous
 62
     8
100
AcDbText
 10
647770.04
 20
222968.21
 30
0.0
 40
1.5
  1
99.09
 51
15.0
  7
ING_-NYILVÁNTARTÁSI_TÉRKÉP_MÉRE
100
AcDbText
  0
TEXT
  5
589
330
1F8
100
AcDbEntity
  8
INGATLAN_NYILVÁNTARTÁSI_TÉRKÉP_
  6
Continuous
 62
     8
100
AcDbText
 10
647759.7
 20
222947.11
 30
0.0
 40
1.5
  1
99.38
 51
15.0
  7
ING_-NYILVÁNTARTÁSI_TÉRKÉP_MÉRE
100
AcDbText
  0
TEXT
  5
58A
330
1F8
100
AcDbEntity
  8
INGATLAN_NYILVÁNTARTÁSI_TÉRKÉP_
  6
Continuous
 62
     8
100
AcDbText
 10
647745.22
 20
222965.3
 30
0.0
 40
1.5
  1
98.91
 51
15.0
  7
ING_-NYILVÁNTARTÁSI_TÉRKÉP_MÉRE
100
AcDbText
  0
TEXT
  5
58B
330
1F8
100
AcDbEntity
  8
INGATLAN_NYILVÁNTARTÁSI_TÉRKÉP_
  6
Continuous
 62
     8
100
AcDbText
 10
647705.02
 20
222933.25
 30
0.0
 40
1.5
  1
99.00
 51
15.0
  7
ING_-NYILVÁNTARTÁSI_TÉRKÉP_MÉRE
100
AcDbText
  0
TEXT
  5
58C
330
1F8
100
AcDbEntity
  8
INGATLAN_NYILVÁNTARTÁSI_TÉRKÉP_
  6
Continuous
 62
     8
100
AcDbText
 10
647713.29
 20
222951.63
 30
0.0
 40
1.5
  1
99.30
 51
15.0
  7
ING_-NYILVÁNTARTÁSI_TÉRKÉP_MÉRE
100
AcDbText
  0
TEXT
  5
58D
330
1F8
100
AcDbEntity
  8
INGATLAN_NYILVÁNTARTÁSI_TÉRKÉP_
  6
Continuous
 62
     8
100
AcDbText
 10
647698.74
 20
222963.54
 30
0.0
 40
1.5
  1
99.28
 51
15.0
  7
ING_-NYILVÁNTARTÁSI_TÉRKÉP_MÉRE
100
AcDbText
  0
TEXT
  5
58E
330
1F8
100
AcDbEntity
  8
INGATLAN_NYILVÁNTARTÁSI_TÉRKÉP_
  6
Continuous
 62
     8
100
AcDbText
 10
647684.1800000001
 20
222953.66
 30
0.0
 40
1.5
  1
99.11
 51
15.0
  7
ING_-NYILVÁNTARTÁSI_TÉRKÉP_MÉRE
100
AcDbText
  0
TEXT
  5
58F
330
1F8
100
AcDbEntity
  8
INGATLAN_NYILVÁNTARTÁSI_TÉRKÉP_
  6
Continuous
 62
     8
100
AcDbText
 10
647715.74
 20
222979.35
 30
0.0
 40
1.5
  1
99.04
 51
15.0
  7
ING_-NYILVÁNTARTÁSI_TÉRKÉP_MÉRE
100
AcDbText
  0
TEXT
  5
590
330
1F8
100
AcDbEntity
  8
INGATLAN_NYILVÁNTARTÁSI_TÉRKÉP_
  6
Continuous
 62
     8
100
AcDbText
 10
647734.5800000001
 20
222998.73
 30
0.0
 40
1.5
  1
98.69
 51
15.0
  7
ING_-NYILVÁNTARTÁSI_TÉRKÉP_MÉRE
100
AcDbText
  0
TEXT
  5
591
330
1F8
100
AcDbEntity
  8
INGATLAN_NYILVÁNTARTÁSI_TÉRKÉP_
  6
Continuous
 62
     8
100
AcDbText
 10
647666.8
 20
222997.58
 30
0.0
 40
1.5
  1
99.40
 51
15.0
  7
ING_-NYILVÁNTARTÁSI_TÉRKÉP_MÉRE
100
AcDbText
  0
TEXT
  5
592
330
1F8
100
AcDbEntity
  8
INGATLAN_NYILVÁNTARTÁSI_TÉRKÉP_
  6
Continuous
 62
     8
100
AcDbText
 10
647655.4547760014
 20
222976.2161289389
 30
0.0
 40
1.5
  1
168.68
 50
316.0
 51
15.0
  7
ING_-NYILVÁNTARTÁSI_TÉRKÉP_MÉRE
 72
     1
 11
647657.76
 21
222973.99
 31
0.0
100
AcDbText
  0
TEXT
  5
593
330
1F8
100
AcDbEntity
  8
INGATLAN_NYILVÁNTARTÁSI_TÉRKÉP_
  6
Continuous
 62
     8
100
AcDbText
 10
647784.1999999999
 20
222992.53
 30
0.0
 40
1.5
  1
99.23
 51
15.0
  7
ING_-NYILVÁNTARTÁSI_TÉRKÉP_MÉRE
100
AcDbText
  0
TEXT
  5
594
330
1F8
100
AcDbEntity
  8
SZABADON_ÁLLÓ_FAL__KERÍTÉSLÁBAZ
  6
Continuous
 62
    57
100
AcDbText
 10
647744.5200000001
 20
222916.27
 30
0.0
 40
1.5
  1
kerités
 50
44.4
 51
15.0
  7
ING_-NYILVÁNTARTÁSI_TÉRKÉP_MÉRE
100
AcDbText
  0
TEXT
  5
595
330
1F8
100
AcDbEntity
  8
INGATLAN_NYILVÁNTARTÁSI_TÉRKÉP_
  6
Continuous
 62
     8
100
AcDbText
 10
647794.54
 20
222984.44
 30
0.0
 40
1.5
  1
karó
 51
15.0
  7
ING_-NYILVÁNTARTÁSI_TÉRKÉP_MÉRE
100
AcDbText
  0
TEXT
  5
596
330
1F8
100
AcDbEntity
  8
INGATLAN_NYILVÁNTARTÁSI_TÉRKÉP_
  6
Continuous
 62
     8
100
AcDbText
 10
647782.0300000001
 20
222979.78
 30
0.0
 40
1.5
  1
karó
 51
15.0
  7
ING_-NYILVÁNTARTÁSI_TÉRKÉP_MÉRE
100
AcDbText
  0
TEXT
  5
597
330
1F8
100
AcDbEntity
  8
INGATLAN_NYILVÁNTARTÁSI_TÉRKÉP_
  6
Continuous
 62
     8
100
AcDbText
 10
647729.98
 20
222930.88
 30
0.0
 40
1.5
  1
karó
 51
15.0
  7
ING_-NYILVÁNTARTÁSI_TÉRKÉP_MÉRE
100
AcDbText
  0
TEXT
  5
598
330
1F8
100
AcDbEntity
  8
INGATLAN_NYILVÁNTARTÁSI_TÉRKÉP_
  6
Continuous
 62
     8
100
AcDbText
 10
647721.4499999999
 20
222916.48
 30
0.0
 40
1.5
  1
karó
 51
15.0
  7
ING_-NYILVÁNTARTÁSI_TÉRKÉP_MÉRE
100
AcDbText
  0
TEXT
  5
599
330
1F8
100
AcDbEntity
  8
ELŐZETES_HELYRALYZISZÁM
  6
Continuous
 62
     1
100
AcDbText
 10
647644.0699999999
 20
223140.27
 30
0.0
 40
2.0
  1
(12504)
 51
15.0
  7
ELŐZETES_HRSZ
100
AcDbText
  0
TEXT
  5
59A
330
1F8
100
AcDbEntity
  8
INGATLAN_NYILVÁNTARTÁSI_TÉRKÉP_
  6
Continuous
 62
     8
100
AcDbText
 10
647664.58
 20
223054.18
 30
0.0
 40
1.5
  1
99.25
 51
15.0
  7
ING_-NYILVÁNTARTÁSI_TÉRKÉP_MÉRE
100
AcDbText
  0
TEXT
  5
59B
330
1F8
100
AcDbEntity
  8
ALRÉSZLET_MŰVELÉSI_ÁG
  6
Continuous
 62
   112
100
AcDbText
 10
647798.7800000001
 20
223133.71
 30
0.0
 40
2.0
  1
Sz
 50
316.0
 51
15.0
  7
ALRÉSZLET_MŰVELÉSI_ÁGA
100
AcDbText
  0
TEXT
  5
59C
330
1F8
100
AcDbEntity
  8
ALRÉSZLET_MŰVELÉSI_ÁG
  6
Continuous
 62
   112
100
AcDbText
 10
647646.3199999999
 20
223134.85
 30
0.0
 40
2.0
  1
Sz
 51
15.0
  7
ALRÉSZLET_MŰVELÉSI_ÁGA
100
AcDbText
  0
TEXT
  5
59D
330
1F8
100
AcDbEntity
  8
ALRÉSZLET_MŰVELÉSI_ÁG
  6
Continuous
 62
   112
100
AcDbText
 10
647685.0300000001
 20
223033.62
 30
0.0
 40
2.0
  1
Sz
 51
15.0
  7
ALRÉSZLET_MŰVELÉSI_ÁGA
100
AcDbText
  0
TEXT
  5
59E
330
1F8
100
AcDbEntity
  8
HELYRAJZISZÁM
  6
Continuous
 62
   100
100
AcDbText
 10
647768.7900000001
 20
223163.18
 30
0.0
 40
2.0
  1
0298/129
 50
315.9
 51
15.0
  7
HELYRAJZI_SZÁM__JOGERŐS_
100
AcDbText
  0
TEXT
  5
59F
330
1F8
100
AcDbEntity
  8
INGATLAN_NYILVÁNTARTÁSI_TÉRKÉP_
  6
Continuous
 62
     8
100
AcDbText
 10
647796.69
 20
223003.94
 30
0.0
 40
1.5
  1
99.22
 51
15.0
  7
ING_-NYILVÁNTARTÁSI_TÉRKÉP_MÉRE
100
AcDbText
  0
TEXT
  5
5A0
330
1F8
100
AcDbEntity
  8
INGATLAN_NYILVÁNTARTÁSI_TÉRKÉP_
  6
Continuous
 62
     8
100
AcDbText
 10
647647.2300000001
 20
223101.59
 30
0.0
 40
1.5
  1
99.22
 51
15.0
  7
ING_-NYILVÁNTARTÁSI_TÉRKÉP_MÉRE
100
AcDbText
  0
TEXT
  5
5A1
330
1F8
100
AcDbEntity
  8
INGATLAN_NYILVÁNTARTÁSI_TÉRKÉP_
  6
Continuous
 62
     8
100
AcDbText
 10
647757.25
 20
223077.84
 30
0.0
 40
1.5
  1
99.29
 51
15.0
  7
ING_-NYILVÁNTARTÁSI_TÉRKÉP_MÉRE
100
AcDbText
  0
TEXT
  5
5A2
330
1F8
100
AcDbEntity
  8
ELŐZETES_HELYRALYZISZÁM
  6
Continuous
 62
     1
100
AcDbText
 10
647683.11
 20
223038.02
 30
0.0
 40
2.0
  1
(12505)
 51
15.0
  7
ELŐZETES_HRSZ
100
AcDbText
  0
TEXT
  5
5A3
330
1F8
100
AcDbEntity
  8
GÁZVEZETÉK___FELSZÍN_ALATTI_
  6
Continuous
 62
    51
100
AcDbText
 10
647621.6500000001
 20
223094.67
 30
0.0
 40
1.5
  1
gázvezeték
 50
283.6
 51
15.0
  7
ING_-NYILVÁNTARTÁSI_TÉRKÉP_MÉRE
100
AcDbText
  0
TEXT
  5
5A4
330
1F8
100
AcDbEntity
  8
GÁZVEZETÉK___FELSZÍN_ALATTI_
  6
Continuous
 62
    51
100
AcDbText
 10
647622.2400000001
 20
223102.3640654843
 30
0.0
 40
1.5
  1
jelzőoszlop
 51
15.0
  7
ING_-NYILVÁNTARTÁSI_TÉRKÉP_MÉRE
 11
647622.2400000001
 21
223101.92
 31
0.0
100
AcDbText
 73
     1
  0
TEXT
  5
5A5
330
1F8
100
AcDbEntity
  8
INGATLAN_NYILVÁNTARTÁSI_TÉRKÉP_
  6
Continuous
 62
     8
100
AcDbText
 10
647775.86
 20
223041.04
 30
0.0
 40
1.5
  1
99.28
 51
15.0
  7
ING_-NYILVÁNTARTÁSI_TÉRKÉP_MÉRE
100
AcDbText
  0
TEXT
  5
5A6
330
1F8
100
AcDbEntity
  8
INGATLAN_NYILVÁNTARTÁSI_TÉRKÉP_
  6
Continuous
 62
     8
100
AcDbText
 10
647794.6200000001
 20
223060.77
 30
0.0
 40
1.5
  1
99.09
 51
15.0
  7
ING_-NYILVÁNTARTÁSI_TÉRKÉP_MÉRE
100
AcDbText
  0
TEXT
  5
5A7
330
1F8
100
AcDbEntity
  8
INGATLAN_NYILVÁNTARTÁSI_TÉRKÉP_
  6
Continuous
 62
     8
100
AcDbText
 10
647779.0699999999
 20
223101.85
 30
0.0
 40
1.5
  1
98.65
 51
15.0
  7
ING_-NYILVÁNTARTÁSI_TÉRKÉP_MÉRE
100
AcDbText
  0
TEXT
  5
5A8
330
1F8
100
AcDbEntity
  8
INGATLAN_NYILVÁNTARTÁSI_TÉRKÉP_
  6
Continuous
 62
     8
100
AcDbText
 10
647768.5747760014
 20
223110.2061289389
 30
0.0
 40
1.5
  1
184.40
 50
316.0
 51
15.0
  7
ING_-NYILVÁNTARTÁSI_TÉRKÉP_MÉRE
 72
     1
 11
647770.8800000001
 21
223107.98
 31
0.0
100
AcDbText
  0
TEXT
  5
5A9
330
1F8
100
AcDbEntity
  8
INGATLAN_NYILVÁNTARTÁSI_TÉRKÉP_
  6
Continuous
 62
     8
100
AcDbText
 10
647732.51
 20
223054.91
 30
0.0
 40
1.5
  1
98.85
 51
15.0
  7
ING_-NYILVÁNTARTÁSI_TÉRKÉP_MÉRE
100
AcDbText
  0
TEXT
  5
5AA
330
1F8
100
AcDbEntity
  8
INGATLAN_NYILVÁNTARTÁSI_TÉRKÉP_
  6
Continuous
 62
     8
100
AcDbText
 10
647708.5399999999
 20
223037.29
 30
0.0
 40
1.5
  1
99.02
 51
15.0
  7
ING_-NYILVÁNTARTÁSI_TÉRKÉP_MÉRE
100
AcDbText
  0
TEXT
  5
5AB
330
1F8
100
AcDbEntity
  8
INGATLAN_NYILVÁNTARTÁSI_TÉRKÉP_
  6
Continuous
 62
     8
100
AcDbText
 10
647711.6800000001
 20
223023.12
 30
0.0
 40
1.5
  1
98.77
 51
15.0
  7
ING_-NYILVÁNTARTÁSI_TÉRKÉP_MÉRE
100
AcDbText
  0
TEXT
  5
5AC
330
1F8
100
AcDbEntity
  8
INGATLAN_NYILVÁNTARTÁSI_TÉRKÉP_
  6
Continuous
 62
     8
100
AcDbText
 10
647691.8399999999
 20
223018.57
 30
0.0
 40
1.5
  1
99.24
 51
15.0
  7
ING_-NYILVÁNTARTÁSI_TÉRKÉP_MÉRE
100
AcDbText
  0
TEXT
  5
5AD
330
1F8
100
AcDbEntity
  8
HELYRAJZISZÁM
  6
Continuous
 62
   100
100
AcDbText
 10
647681.0400000001
 20
223042.73
 30
0.0
 40
2.0
  1
0298/132
 51
15.0
  7
HELYRAJZI_SZÁM__JOGERŐS_
100
AcDbText
  0
TEXT
  5
5AE
330
1F8
100
AcDbEntity
  8
INGATLAN_NYILVÁNTARTÁSI_TÉRKÉP_
  6
Continuous
 62
     8
100
AcDbText
 10
647601.62
 20
223033.85
 30
0.0
 40
1.5
  1
99.17
 51
15.0
  7
ING_-NYILVÁNTARTÁSI_TÉRKÉP_MÉRE
100
AcDbText
  0
TEXT
  5
5AF
330
1F8
100
AcDbEntity
  8
INGATLAN_NYILVÁNTARTÁSI_TÉRKÉP_
  6
Continuous
 62
     8
100
AcDbText
 10
647625.1400000001
 20
223011.37
 30
0.0
 40
1.5
  1
99.01
 51
15.0
  7
ING_-NYILVÁNTARTÁSI_TÉRKÉP_MÉRE
100
AcDbText
  0
TEXT
  5
5B0
330
1F8
100
AcDbEntity
  8
INGATLAN_NYILVÁNTARTÁSI_TÉRKÉP_
  6
Continuous
 62
     8
100
AcDbText
 10
647686.7099999999
 20
223075.58
 30
0.0
 40
1.5
  1
99.16
 51
15.0
  7
ING_-NYILVÁNTARTÁSI_TÉRKÉP_MÉRE
100
AcDbText
  0
TEXT
  5
5B1
330
1F8
100
AcDbEntity
  8
INGATLAN_NYILVÁNTARTÁSI_TÉRKÉP_
  6
Continuous
 62
     8
100
AcDbText
 10
647708.6899999999
 20
223101.78
 30
0.0
 40
1.5
  1
98.99
 51
15.0
  7
ING_-NYILVÁNTARTÁSI_TÉRKÉP_MÉRE
100
AcDbText
  0
TEXT
  5
5B2
330
1F8
100
AcDbEntity
  8
INGATLAN_NYILVÁNTARTÁSI_TÉRKÉP_
  6
Continuous
 62
     8
100
AcDbText
 10
647703.02
 20
223111.24
 30
0.0
 40
1.5
  1
99.25
 51
15.0
  7
ING_-NYILVÁNTARTÁSI_TÉRKÉP_MÉRE
100
AcDbText
  0
TEXT
  5
5B3
330
1F8
100
AcDbEntity
  8
INGATLAN_NYILVÁNTARTÁSI_TÉRKÉP_
  6
Continuous
 62
     8
100
AcDbText
 10
647741.62
 20
223135.36
 30
0.0
 40
1.5
  1
98.94
 51
15.0
  7
ING_-NYILVÁNTARTÁSI_TÉRKÉP_MÉRE
100
AcDbText
  0
TEXT
  5
5B4
330
1F8
100
AcDbEntity
  8
INGATLAN_NYILVÁNTARTÁSI_TÉRKÉP_
  6
Continuous
 62
     8
100
AcDbText
 10
647710.9100000001
 20
223163.81
 30
0.0
 40
1.5
  1
99.08
 51
15.0
  7
ING_-NYILVÁNTARTÁSI_TÉRKÉP_MÉRE
100
AcDbText
  0
TEXT
  5
5B5
330
1F8
100
AcDbEntity
  8
INGATLAN_NYILVÁNTARTÁSI_TÉRKÉP_
  6
Continuous
 62
     8
100
AcDbText
 10
647693.9100000001
 20
223148.69
 30
0.0
 40
1.5
  1
99.14
 51
15.0
  7
ING_-NYILVÁNTARTÁSI_TÉRKÉP_MÉRE
100
AcDbText
  0
TEXT
  5
5B6
330
1F8
100
AcDbEntity
  8
INGATLAN_NYILVÁNTARTÁSI_TÉRKÉP_
  6
Continuous
 62
     8
100
AcDbText
 10
647687.94
 20
223142.79
 30
0.0
 40
1.5
  1
98.84
 51
15.0
  7
ING_-NYILVÁNTARTÁSI_TÉRKÉP_MÉRE
100
AcDbText
  0
TEXT
  5
5B7
330
1F8
100
AcDbEntity
  8
INGATLAN_NYILVÁNTARTÁSI_TÉRKÉP_
  6
Continuous
 62
     8
100
AcDbText
 10
647681.73
 20
223136.2
 30
0.0
 40
1.5
  1
99.16
 51
15.0
  7
ING_-NYILVÁNTARTÁSI_TÉRKÉP_MÉRE
100
AcDbText
  0
TEXT
  5
5B8
330
1F8
100
AcDbEntity
  8
INGATLAN_NYILVÁNTARTÁSI_TÉRKÉP_
  6
Continuous
 62
     8
100
AcDbText
 10
647726.69
 20
223119.81
 30
0.0
 40
1.5
  1
99.33
 51
15.0
  7
ING_-NYILVÁNTARTÁSI_TÉRKÉP_MÉRE
100
AcDbText
  0
TEXT
  5
5B9
330
1F8
100
AcDbEntity
  8
INGATLAN_NYILVÁNTARTÁSI_TÉRKÉP_
  6
Continuous
 62
     8
100
AcDbText
 10
647713.7500000001
 20
223130.15
 30
0.0
 40
1.5
  1
99.33
 51
15.0
  7
ING_-NYILVÁNTARTÁSI_TÉRKÉP_MÉRE
100
AcDbText
  0
TEXT
  5
5BA
330
1F8
100
AcDbEntity
  8
INGATLAN_NYILVÁNTARTÁSI_TÉRKÉP_
  6
Continuous
 62
     8
100
AcDbText
 10
647704.25
 20
223122.88
 30
0.0
 40
1.5
  1
98.88
 51
15.0
  7
ING_-NYILVÁNTARTÁSI_TÉRKÉP_MÉRE
100
AcDbText
  0
TEXT
  5
5BB
330
1F8
100
AcDbEntity
  8
INGATLAN_NYILVÁNTARTÁSI_TÉRKÉP_
  6
Continuous
 62
     8
100
AcDbText
 10
647664.35
 20
223113.65
 30
0.0
 40
1.5
  1
99.31
 51
15.0
  7
ING_-NYILVÁNTARTÁSI_TÉRKÉP_MÉRE
100
AcDbText
  0
TEXT
  5
5BC
330
1F8
100
AcDbEntity
  8
INGATLAN_NYILVÁNTARTÁSI_TÉRKÉP_
  6
Continuous
 62
     8
100
AcDbText
 10
647631.96
 20
223087.66
 30
0.0
 40
1.5
  1
99.14
 51
15.0
  7
ING_-NYILVÁNTARTÁSI_TÉRKÉP_MÉRE
100
AcDbText
  0
TEXT
  5
5BD
330
1F8
100
AcDbEntity
  8
INGATLAN_NYILVÁNTARTÁSI_TÉRKÉP_
  6
Continuous
 62
     8
100
AcDbText
 10
647626.4399999999
 20
223075.97
 30
0.0
 40
1.5
  1
99.00
 51
15.0
  7
ING_-NYILVÁNTARTÁSI_TÉRKÉP_MÉRE
100
AcDbText
  0
TEXT
  5
5BE
330
1F8
100
AcDbEntity
  8
HELYRAJZISZÁM
  6
Continuous
 62
   100
100
AcDbText
 10
647643.5600000001
 20
223145.42
 30
0.0
 40
2.0
  1
0298/131
 51
15.0
  7
HELYRAJZI_SZÁM__JOGERŐS_
100
AcDbText
  0
TEXT
  5
5BF
330
1F8
100
AcDbEntity
  8
INGATLAN_NYILVÁNTARTÁSI_TÉRKÉP_
  6
Continuous
 62
     8
100
AcDbText
 10
647642.29
 20
223029.1
 30
0.0
 40
1.5
  1
99.11
 51
15.0
  7
ING_-NYILVÁNTARTÁSI_TÉRKÉP_MÉRE
100
AcDbText
  0
TEXT
  5
5C0
330
1F8
100
AcDbEntity
  8
INGATLAN_NYILVÁNTARTÁSI_TÉRKÉP_
  6
Continuous
 62
     8
100
AcDbText
 10
647611.27
 20
223057.05
 30
0.0
 40
1.5
  1
99.00
 51
15.0
  7
ING_-NYILVÁNTARTÁSI_TÉRKÉP_MÉRE
100
AcDbText
  0
TEXT
  5
5C1
330
1F8
100
AcDbEntity
  8
INGATLAN_NYILVÁNTARTÁSI_TÉRKÉP_
  6
Continuous
 62
     8
100
AcDbText
 10
647760.6899999999
 20
223024.73
 30
0.0
 40
1.5
  1
99.01
 51
15.0
  7
ING_-NYILVÁNTARTÁSI_TÉRKÉP_MÉRE
100
AcDbText
  0
TEXT
  5
5C2
330
1F8
100
AcDbEntity
  8
ELŐZETES_HELYRALYZISZÁM
  6
Continuous
 62
     1
100
AcDbText
 10
647785.3900000001
 20
223147.48
 30
0.0
 40
2.0
  1
(12503)
 50
316.0
 51
15.0
  7
ELŐZETES_HRSZ
100
AcDbText
  0
TEXT
  5
5C3
330
1F8
100
AcDbEntity
  8
INGATLAN_NYILVÁNTARTÁSI_TÉRKÉP_
  6
Continuous
 62
     8
100
AcDbText
 10
647655.754004403
 20
223099.5110189315
 30
0.0
 40
1.5
  1
171.12
 50
48.2
 51
15.0
  7
ING_-NYILVÁNTARTÁSI_TÉRKÉP_MÉRE
 72
     1
 11
647657.8899999999
 21
223101.9
 31
0.0
100
AcDbText
  0
TEXT
  5
5C4
330
1F8
100
AcDbEntity
  8
INGATLAN_NYILVÁNTARTÁSI_TÉRKÉP_
  6
Continuous
 62
     8
100
AcDbText
 10
647717.24
 20
223001.54
 30
0.0
 40
1.5
  1
99
 50
100.9
 51
15.0
  7
ING_-NYILVÁNTARTÁSI_TÉRKÉP_MÉRE
100
AcDbText
  0
TEXT
  5
5C5
330
1F8
100
AcDbEntity
  8
INGATLAN_NYILVÁNTARTÁSI_TÉRKÉP_
  6
Continuous
 62
     8
100
AcDbText
 10
647762.36
 20
223008.16
 30
0.0
 40
1.5
  1
99
 50
278.9
 51
15.0
  7
ING_-NYILVÁNTARTÁSI_TÉRKÉP_MÉRE
100
AcDbText
  0
TEXT
  5
5C6
330
1F8
100
AcDbEntity
  8
INGATLAN_NYILVÁNTARTÁSI_TÉRKÉP_
  6
Continuous
 62
     8
100
AcDbText
 10
647787.98
 20
223076.27
 30
0.0
 40
1.5
  1
99
 50
152.8
 51
15.0
  7
ING_-NYILVÁNTARTÁSI_TÉRKÉP_MÉRE
100
AcDbText
  0
TEXT
  5
5C7
330
1F8
100
AcDbEntity
  8
INGATLAN_NYILVÁNTARTÁSI_TÉRKÉP_
  6
Continuous
 62
     8
100
AcDbText
 10
647707.05
 20
223127.9
 30
0.0
 40
1.5
  1
99
 50
308.2
 51
15.0
  7
ING_-NYILVÁNTARTÁSI_TÉRKÉP_MÉRE
100
AcDbText
  0
TEXT
  5
5C8
330
1F8
100
AcDbEntity
  8
INGATLAN_NYILVÁNTARTÁSI_TÉRKÉP_
  6
Continuous
 62
     8
100
AcDbText
 10
647602.6999999999
 20
223036.06
 30
0.0
 40
1.5
  1
karó
 51
15.0
  7
ING_-NYILVÁNTARTÁSI_TÉRKÉP_MÉRE
100
AcDbText
  0
TEXT
  5
5C9
330
1F8
100
AcDbEntity
  8
INGATLAN_NYILVÁNTARTÁSI_TÉRKÉP_
  6
Continuous
 62
     8
100
AcDbText
 10
647711.75
 20
223166.19
 30
0.0
 40
1.5
  1
karó
 51
15.0
  7
ING_-NYILVÁNTARTÁSI_TÉRKÉP_MÉRE
100
AcDbText
  0
INSERT
  5
5CA
330
1F8
100
AcDbEntity
  8
INGATLAN_NYILVÁNTARTÁSI_TÉRKÉP_
  6
Continuous
100
AcDbBlockReference
  2
RÉSZLETPONT_EGYÉB__I__RENDŰ_
 10
647725.6600000001
 20
222901.01
 30
99.801
  0
INSERT
  5
5CB
330
1F8
100
AcDbEntity
  8
INGATLAN_NYILVÁNTARTÁSI_TÉRKÉP_
  6
Continuous
100
AcDbBlockReference
  2
RÉSZLETPONT_EGYÉB__I__RENDŰ_
 10
647758.98
 20
222948.94
 30
99.37800000000001
  0
INSERT
  5
5CC
330
1F8
100
AcDbEntity
  8
INGATLAN_NYILVÁNTARTÁSI_TÉRKÉP_
  6
Continuous
100
AcDbBlockReference
  2
RÉSZLETPONT_EGYÉB__I__RENDŰ_
 10
647741.1400000001
 20
222934.64
 30
99.35999999999999
  0
INSERT
  5
5CD
330
1F8
100
AcDbEntity
  8
INGATLAN_NYILVÁNTARTÁSI_TÉRKÉP_
  6
Continuous
100
AcDbBlockReference
  2
RÉSZLETPONT__KARÓ_
 10
647720.4799999999
 20
222917.28
 30
0.0
 41
5.0
 42
5.0
  0
INSERT
  5
5CE
330
1F8
100
AcDbEntity
  8
INGATLAN_NYILVÁNTARTÁSI_TÉRKÉP_
  6
Continuous
100
AcDbBlockReference
  2
RÉSZLETPONT_EGYÉB__I__RENDŰ_
 10
647718.4000000001
 20
222907.09
 30
99.502
  0
INSERT
  5
5CF
330
1F8
100
AcDbEntity
  8
VÍZSZINTES_ALAPPONT__FELSŐ_-_N__F
  6
Continuous
100
AcDbBlockReference
  2
FELMÉRÉSI_AP__KŐ
 10
647717.47
 20
222918.44
 30
99.243
  0
INSERT
  5
5D0
330
1F8
100
AcDbEntity
  8
INGATLAN_NYILVÁNTARTÁSI_TÉRKÉP_
  6
Continuous
100
AcDbBlockReference
  2
RÉSZLETPONT_EGYÉB__I__RENDŰ_
 10
647721.2900000001
 20
222904.67
 30
99.62099999999999
  0
INSERT
  5
5D1
330
1F8
100
AcDbEntity
  8
INGATLAN_NYILVÁNTARTÁSI_TÉRKÉP_
  6
Continuous
100
AcDbBlockReference
  2
RÉSZLETPONT_EGYÉB__I__RENDŰ_
 10
647743.14
 20
222932.0
 30
99.32999999999999
  0
INSERT
  5
5D2
330
1F8
100
AcDbEntity
  8
INGATLAN_NYILVÁNTARTÁSI_TÉRKÉP_
  6
Continuous
100
AcDbBlockReference
  2
RÉSZLETPONT__KARÓ_
 10
647731.1800000001
 20
222927.23
 30
0.0
 41
5.0
 42
5.0
  0
INSERT
  5
5D3
330
1F8
100
AcDbEntity
  8
INGATLAN_NYILVÁNTARTÁSI_TÉRKÉP_
  6
Continuous
100
AcDbBlockReference
  2
RÉSZLETPONT_EGYÉB__I__RENDŰ_
 10
647756.48
 20
222951.08
 30
99.313
  0
INSERT
  5
5D4
330
1F8
100
AcDbEntity
  8
GÁZVEZETÉK___FELSZÍN_ALATTI_
  6
Continuous
100
AcDbBlockReference
  2
RÉSZLETPONT_EGYÉB__I__RENDŰ_
 10
647670.4300000001
 20
222887.54
 30
99.50700000000001
  0
INSERT
  5
5D5
330
1F8
100
AcDbEntity
  8
ELEKTROMOS_TÁVVEZETÉK
  6
Continuous
100
AcDbBlockReference
  2
RÉSZLETPONT_EGYÉB__I__RENDŰ_
 10
647720.36
 20
222952.05
 30
99.296
  0
INSERT
  5
5D6
330
1F8
100
AcDbEntity
  8
ELEKTROMOS_TÁVVEZETÉK
  6
Continuous
100
AcDbBlockReference
  2
RÉSZLETPONT_EGYÉB__I__RENDŰ_
 10
647769.5699999999
 20
222969.57
 30
99.091
  0
INSERT
  5
5D7
330
1F8
100
AcDbEntity
  8
INGATLAN_NYILVÁNTARTÁSI_TÉRKÉP_
  6
Continuous
100
AcDbBlockReference
  2
RÉSZLETPONT_EGYÉB__I__RENDŰ_
 10
647651.24
 20
222984.24
 30
99.174
  0
INSERT
  5
5D8
330
1F8
100
AcDbEntity
  8
INGATLAN_NYILVÁNTARTÁSI_TÉRKÉP_
  6
Continuous
100
AcDbBlockReference
  2
RÉSZLETPONT_EGYÉB__I__RENDŰ_
 10
647685.0699999999
 20
222951.95
 30
99.113
  0
INSERT
  5
5D9
330
1F8
100
AcDbEntity
  8
INGATLAN_NYILVÁNTARTÁSI_TÉRKÉP_
  6
Continuous
100
AcDbBlockReference
  2
RÉSZLETPONT_EGYÉB__I__RENDŰ_
 10
647701.98
 20
222966.79
 30
99.28
  0
INSERT
  5
5DA
330
1F8
100
AcDbEntity
  8
INGATLAN_NYILVÁNTARTÁSI_TÉRKÉP_
  6
Continuous
100
AcDbBlockReference
  2
RÉSZLETPONT_EGYÉB__I__RENDŰ_
 10
647703.8900000001
 20
222934.79
 30
98.999
  0
INSERT
  5
5DB
330
1F8
100
AcDbEntity
  8
INGATLAN_NYILVÁNTARTÁSI_TÉRKÉP_
  6
Continuous
100
AcDbBlockReference
  2
RÉSZLETPONT_EGYÉB__I__RENDŰ_
 10
647730.5699999999
 20
222948.93
 30
98.97
  0
INSERT
  5
5DC
330
1F8
100
AcDbEntity
  8
INGATLAN_NYILVÁNTARTÁSI_TÉRKÉP_
  6
Continuous
100
AcDbBlockReference
  2
RÉSZLETPONT_EGYÉB__I__RENDŰ_
 10
647748.09
 20
222963.96
 30
98.907
  0
INSERT
  5
5DD
330
1F8
100
AcDbEntity
  8
INGATLAN_NYILVÁNTARTÁSI_TÉRKÉP_
  6
Continuous
100
AcDbBlockReference
  2
RÉSZLETPONT_EGYÉB__I__RENDŰ_
 10
647718.3100000001
 20
222982.36
 30
99.04099999999999
  0
INSERT
  5
5DE
330
1F8
100
AcDbEntity
  8
INGATLAN_NYILVÁNTARTÁSI_TÉRKÉP_
  6
Continuous
100
AcDbBlockReference
  2
RÉSZLETPONT_EGYÉB__I__RENDŰ_
 10
647768.92
 20
222980.78
 30
98.84199999999999
  0
INSERT
  5
5DF
330
1F8
100
AcDbEntity
  8
INGATLAN_NYILVÁNTARTÁSI_TÉRKÉP_
  6
Continuous
100
AcDbBlockReference
  2
RÉSZLETPONT_EGYÉB__I__RENDŰ_
 10
647787.43
 20
222995.52
 30
99.229
  0
INSERT
  5
5E0
330
1F8
100
AcDbEntity
  8
INGATLAN_NYILVÁNTARTÁSI_TÉRKÉP_
  6
Continuous
100
AcDbBlockReference
  2
RÉSZLETPONT_EGYÉB__I__RENDŰ_
 10
647794.2800000001
 20
222980.04
 30
99.57500000000001
  0
INSERT
  5
5E1
330
1F8
100
AcDbEntity
  8
INGATLAN_NYILVÁNTARTÁSI_TÉRKÉP_
  6
Continuous
100
AcDbBlockReference
  2
RÉSZLETPONT__KARÓ_
 10
647786.6700000001
 20
222978.79
 30
0.0
 41
5.0
 42
5.0
  0
INSERT
  5
5E2
330
1F8
100
AcDbEntity
  8
INGATLAN_NYILVÁNTARTÁSI_TÉRKÉP_
  6
Continuous
100
AcDbBlockReference
  2
RÉSZLETPONT__KARÓ_
 10
647791.33
 20
222983.12
 30
0.0
 41
5.0
 42
5.0
  0
INSERT
  5
5E3
330
1F8
100
AcDbEntity
  8
EGYÉB
  6
Continuous
100
AcDbBlockReference
  2
ESÉSTÜSKE
 10
647793.79
 20
222987.34
 30
0.0
 50
50.5
  0
INSERT
  5
5E4
330
1F8
100
AcDbEntity
  8
EGYÉB
  6
Continuous
100
AcDbBlockReference
  2
ESÉSTÜSKE
 10
647776.0299999999
 20
222983.31
 30
0.0
 50
76.0
  0
INSERT
  5
5E5
330
1F8
100
AcDbEntity
  8
EGYÉB
  6
Continuous
100
AcDbBlockReference
  2
ESÉSTÜSKE
 10
647729.8000000001
 20
222947.29
 30
0.0
 50
322.4
  0
INSERT
  5
5E6
330
1F8
100
AcDbEntity
  8
EGYÉB
  6
Continuous
100
AcDbBlockReference
  2
ESÉSTÜSKE
 10
647720.2
 20
222985.04
 30
0.0
 50
306.1
  0
INSERT
  5
5E7
330
1F8
100
AcDbEntity
  8
INGATLAN_NYILVÁNTARTÁSI_TÉRKÉP_
  6
Continuous
100
AcDbBlockReference
  2
RÉSZLETPONT__KARÓ_
 10
647599.19
 20
223034.51
 30
99.17000000000001
 41
5.0
 42
5.0
  0
INSERT
  5
5E8
330
1F8
100
AcDbEntity
  8
INGATLAN_NYILVÁNTARTÁSI_TÉRKÉP_
  6
Continuous
100
AcDbBlockReference
  2
RÉSZLETPONT_EGYÉB__I__RENDŰ_
 10
647799.66
 20
223002.65
 30
99.21800000000001
  0
INSERT
  5
5E9
330
1F8
100
AcDbEntity
  8
GÁZVEZETÉK___FELSZÍN_ALATTI_
  6
Continuous
100
AcDbBlockReference
  2
RÉSZLETPONT_EGYÉB__I__RENDŰ_
 10
647619.26
 20
223099.28
 30
99.23799999999999
  0
INSERT
  5
5EA
330
1F8
100
AcDbEntity
  8
INGATLAN_NYILVÁNTARTÁSI_TÉRKÉP_
  6
Continuous
100
AcDbBlockReference
  2
RÉSZLETPONT_EGYÉB__I__RENDŰ_
 10
647697.5899999999
 20
223147.28
 30
99.13800000000001
  0
INSERT
  5
5EB
330
1F8
100
AcDbEntity
  8
INGATLAN_NYILVÁNTARTÁSI_TÉRKÉP_
  6
Continuous
100
AcDbBlockReference
  2
RÉSZLETPONT_EGYÉB__I__RENDŰ_
 10
647691.97
 20
223141.38
 30
98.84399999999999
  0
INSERT
  5
5EC
330
1F8
100
AcDbEntity
  8
INGATLAN_NYILVÁNTARTÁSI_TÉRKÉP_
  6
Continuous
100
AcDbBlockReference
  2
RÉSZLETPONT_EGYÉB__I__RENDŰ_
 10
647685.36
 20
223134.86
 30
99.16400000000001
  0
INSERT
  5
5ED
330
1F8
100
AcDbEntity
  8
INGATLAN_NYILVÁNTARTÁSI_TÉRKÉP_
  6
Continuous
100
AcDbBlockReference
  2
RÉSZLETPONT_EGYÉB__I__RENDŰ_
 10
647666.7400000001
 20
223116.81
 30
99.306
  0
INSERT
  5
5EE
330
1F8
100
AcDbEntity
  8
INGATLAN_NYILVÁNTARTÁSI_TÉRKÉP_
  6
Continuous
100
AcDbBlockReference
  2
RÉSZLETPONT_EGYÉB__I__RENDŰ_
 10
647649.1899999999
 20
223100.03
 30
99.21700000000001
  0
INSERT
  5
5EF
330
1F8
100
AcDbEntity
  8
INGATLAN_NYILVÁNTARTÁSI_TÉRKÉP_
  6
Continuous
100
AcDbBlockReference
  2
RÉSZLETPONT_EGYÉB__I__RENDŰ_
 10
647634.2800000001
 20
223086.49
 30
99.14000000000001
  0
INSERT
  5
5F0
330
1F8
100
AcDbEntity
  8
INGATLAN_NYILVÁNTARTÁSI_TÉRKÉP_
  6
Continuous
100
AcDbBlockReference
  2
RÉSZLETPONT_EGYÉB__I__RENDŰ_
 10
647626.08
 20
223074.61
 30
98.99500000000001
  0
INSERT
  5
5F1
330
1F8
100
AcDbEntity
  8
INGATLAN_NYILVÁNTARTÁSI_TÉRKÉP_
  6
Continuous
100
AcDbBlockReference
  2
RÉSZLETPONT_EGYÉB__I__RENDŰ_
 10
647613.76
 20
223055.54
 30
98.99700000000001
  0
INSERT
  5
5F2
330
1F8
100
AcDbEntity
  8
INGATLAN_NYILVÁNTARTÁSI_TÉRKÉP_
  6
Continuous
100
AcDbBlockReference
  2
RÉSZLETPONT_EGYÉB__I__RENDŰ_
 10
647625.33
 20
223009.55
 30
99.01000000000001
  0
INSERT
  5
5F3
330
1F8
100
AcDbEntity
  8
INGATLAN_NYILVÁNTARTÁSI_TÉRKÉP_
  6
Continuous
100
AcDbBlockReference
  2
RÉSZLETPONT_EGYÉB__I__RENDŰ_
 10
647645.2400000001
 20
223032.33
 30
99.11100000000001
  0
INSERT
  5
5F4
330
1F8
100
AcDbEntity
  8
INGATLAN_NYILVÁNTARTÁSI_TÉRKÉP_
  6
Continuous
100
AcDbBlockReference
  2
RÉSZLETPONT_EGYÉB__I__RENDŰ_
 10
647667.55
 20
223057.76
 30
99.25400000000001
  0
INSERT
  5
5F5
330
1F8
100
AcDbEntity
  8
INGATLAN_NYILVÁNTARTÁSI_TÉRKÉP_
  6
Continuous
100
AcDbBlockReference
  2
RÉSZLETPONT_EGYÉB__I__RENDŰ_
 10
647689.5
 20
223078.52
 30
99.16200000000001
  0
INSERT
  5
5F6
330
1F8
100
AcDbEntity
  8
INGATLAN_NYILVÁNTARTÁSI_TÉRKÉP_
  6
Continuous
100
AcDbBlockReference
  2
RÉSZLETPONT_EGYÉB__I__RENDŰ_
 10
647706.07
 20
223114.24
 30
99.249
  0
INSERT
  5
5F7
330
1F8
100
AcDbEntity
  8
INGATLAN_NYILVÁNTARTÁSI_TÉRKÉP_
  6
Continuous
100
AcDbBlockReference
  2
RÉSZLETPONT_EGYÉB__I__RENDŰ_
 10
647709.4100000001
 20
223121.84
 30
98.87900000000001
  0
INSERT
  5
5F8
330
1F8
100
AcDbEntity
  8
INGATLAN_NYILVÁNTARTÁSI_TÉRKÉP_
  6
Continuous
100
AcDbBlockReference
  2
RÉSZLETPONT_EGYÉB__I__RENDŰ_
 10
647716.17
 20
223128.81
 30
99.327
  0
INSERT
  5
5F9
330
1F8
100
AcDbEntity
  8
INGATLAN_NYILVÁNTARTÁSI_TÉRKÉP_
  6
Continuous
100
AcDbBlockReference
  2
RÉSZLETPONT_EGYÉB__I__RENDŰ_
 10
647729.3800000001
 20
223122.85
 30
99.33100000000001
  0
INSERT
  5
5FA
330
1F8
100
AcDbEntity
  8
INGATLAN_NYILVÁNTARTÁSI_TÉRKÉP_
  6
Continuous
100
AcDbBlockReference
  2
RÉSZLETPONT_EGYÉB__I__RENDŰ_
 10
647740.9900000001
 20
223133.92
 30
98.94100000000001
  0
INSERT
  5
5FB
330
1F8
100
AcDbEntity
  8
INGATLAN_NYILVÁNTARTÁSI_TÉRKÉP_
  6
Continuous
100
AcDbBlockReference
  2
RÉSZLETPONT_EGYÉB__I__RENDŰ_
 10
647711.01
 20
223099.89
 30
98.985
  0
INSERT
  5
5FC
330
1F8
100
AcDbEntity
  8
INGATLAN_NYILVÁNTARTÁSI_TÉRKÉP_
  6
Continuous
100
AcDbBlockReference
  2
RÉSZLETPONT_EGYÉB__I__RENDŰ_
 10
647760.0999999999
 20
223080.77
 30
99.291
  0
INSERT
  5
5FD
330
1F8
100
AcDbEntity
  8
INGATLAN_NYILVÁNTARTÁSI_TÉRKÉP_
  6
Continuous
100
AcDbBlockReference
  2
RÉSZLETPONT_EGYÉB__I__RENDŰ_
 10
647780.5100000001
 20
223100.33
 30
98.65300000000001
  0
INSERT
  5
5FE
330
1F8
100
AcDbEntity
  8
INGATLAN_NYILVÁNTARTÁSI_TÉRKÉP_
  6
Continuous
100
AcDbBlockReference
  2
RÉSZLETPONT_EGYÉB__I__RENDŰ_
 10
647735.2900000001
 20
223057.94
 30
98.84999999999999
  0
INSERT
  5
5FF
330
1F8
100
AcDbEntity
  8
INGATLAN_NYILVÁNTARTÁSI_TÉRKÉP_
  6
Continuous
100
AcDbBlockReference
  2
RÉSZLETPONT_EGYÉB__I__RENDŰ_
 10
647714.35
 20
223026.02
 30
98.77
  0
INSERT
  5
600
330
1F8
100
AcDbEntity
  8
INGATLAN_NYILVÁNTARTÁSI_TÉRKÉP_
  6
Continuous
100
AcDbBlockReference
  2
RÉSZLETPONT_EGYÉB__I__RENDŰ_
 10
647712.68
 20
223035.86
 30
99.01900000000001
  0
INSERT
  5
601
330
1F8
100
AcDbEntity
  8
INGATLAN_NYILVÁNTARTÁSI_TÉRKÉP_
  6
Continuous
100
AcDbBlockReference
  2
RÉSZLETPONT_EGYÉB__I__RENDŰ_
 10
647694.64
 20
223021.58
 30
99.243
  0
INSERT
  5
602
330
1F8
100
AcDbEntity
  8
INGATLAN_NYILVÁNTARTÁSI_TÉRKÉP_
  6
Continuous
100
AcDbBlockReference
  2
RÉSZLETPONT_EGYÉB__I__RENDŰ_
 10
647669.58
 20
223000.66
 30
99.395
  0
INSERT
  5
603
330
1F8
100
AcDbEntity
  8
INGATLAN_NYILVÁNTARTÁSI_TÉRKÉP_
  6
Continuous
100
AcDbBlockReference
  2
RÉSZLETPONT_EGYÉB__I__RENDŰ_
 10
647736.97
 20
223001.77
 30
98.68999999999999
  0
INSERT
  5
604
330
1F8
100
AcDbEntity
  8
INGATLAN_NYILVÁNTARTÁSI_TÉRKÉP_
  6
Continuous
100
AcDbBlockReference
  2
RÉSZLETPONT_EGYÉB__I__RENDŰ_
 10
647759.26
 20
223024.4
 30
99.014
  0
INSERT
  5
605
330
1F8
100
AcDbEntity
  8
INGATLAN_NYILVÁNTARTÁSI_TÉRKÉP_
  6
Continuous
100
AcDbBlockReference
  2
RÉSZLETPONT_EGYÉB__I__RENDŰ_
 10
647779.08
 20
223044.36
 30
99.27500000000001
  0
INSERT
  5
606
330
1F8
100
AcDbEntity
  8
INGATLAN_NYILVÁNTARTÁSI_TÉRKÉP_
  6
Continuous
100
AcDbBlockReference
  2
RÉSZLETPONT_EGYÉB__I__RENDŰ_
 10
647798.0400000001
 20
223063.75
 30
99.08799999999999
  0
INSERT
  5
607
330
1F8
100
AcDbEntity
  8
INGATLAN_NYILVÁNTARTÁSI_TÉRKÉP_
  6
Continuous
100
AcDbBlockReference
  2
RÉSZLETPONT__KARÓ_
 10
647713.33
 20
223162.0
 30
99.08000000000001
 41
5.0
 42
5.0
  0
INSERT
  5
608
330
1F8
100
AcDbEntity
  8
EGYÉB
  6
Continuous
100
AcDbBlockReference
  2
ESÉSTÜSKE
 10
647697.6800000001
 20
223129.26
 30
0.0
 50
310.8
  0
INSERT
  5
609
330
1F8
100
AcDbEntity
  8
EGYÉB
  6
Continuous
100
AcDbBlockReference
  2
ESÉSTÜSKE
 10
647702.8100000001
 20
223134.1
 30
0.0
 50
132.7
  0
INSERT
  5
60A
330
1F8
100
AcDbEntity
  8
EGYÉB
  6
Continuous
100
AcDbBlockReference
  2
ESÉSTÜSKE
 10
647742.94
 20
223127.54
 30
0.0
 50
297.7
  0
INSERT
  5
60B
330
1F8
100
AcDbEntity
  8
EGYÉB
  6
Continuous
100
AcDbBlockReference
  2
ESÉSTÜSKE
 10
647773.57
 20
223086.47
 30
0.0
 50
319.0
  0
INSERT
  5
60C
330
1F8
100
AcDbEntity
  8
EGYÉB
  6
Continuous
100
AcDbBlockReference
  2
ESÉSTÜSKE
 10
647704.92
 20
223023.26
 30
0.0
 50
284.0
  0
INSERT
  5
60D
330
1F8
100
AcDbEntity
  8
EGYÉB
  6
Continuous
100
AcDbBlockReference
  2
ESÉSTÜSKE
 10
647710.1600000001
 20
223056.84
 30
0.0
 50
271.1
  0
INSERT
  5
60E
330
1F8
100
AcDbEntity
  8
EGYÉB
  6
Continuous
100
AcDbBlockReference
  2
ESÉSTÜSKE
 10
647711.2700000001
 20
223100.8
 30
0.0
 50
189.5
  0
INSERT
  5
60F
330
1F8
100
AcDbEntity
  8
EGYÉB
  6
Continuous
100
AcDbBlockReference
  2
ESÉSTÜSKE
 10
647756.9599999999
 20
223024.18
 30
0.0
 50
131.1
  0
INSERT
  5
610
330
1F8
100
AcDbEntity
  8
EGYÉB
  6
Continuous
100
AcDbBlockReference
  2
ESÉSTÜSKE
 10
647714.6000000001
 20
223122.4800000001
 30
0.0
 50
113.4
  0
INSERT
  5
611
330
1F8
100
AcDbEntity
  8
INGATLAN_NYILVÁNTARTÁSI_TÉRKÉP_
  6
Continuous
100
AcDbBlockReference
  2
RÉSZLETPONT_EGYÉB__I__RENDŰ_
 10
647845.9300000001
 20
223033.85
 30
99.55
  0
INSERT
  5
612
330
1F8
100
AcDbEntity
  8
INGATLAN_NYILVÁNTARTÁSI_TÉRKÉP_
  6
Continuous
100
AcDbBlockReference
  2
RÉSZLETPONT__KARÓ_
 10
647845.9300000001
 20
223033.85
 30
99.55
 41
5.0
 42
5.0
  0
INSERT
  5
613
330
1F8
100
AcDbEntity
  8
ELEKTROMOS_TÁVVEZETÉK
  6
Continuous
100
AcDbBlockReference
  2
RÉSZLETPONT_EGYÉB__I__RENDŰ_
 10
647804.8199999999
 20
223030.92
 30
99.594
  0
INSERT
  5
614
330
1F8
100
AcDbEntity
  8
ELEKTROMOS_TÁVVEZETÉK
  6
Continuous
100
AcDbBlockReference
  2
RÉSZLETPONT_EGYÉB__I__RENDŰ_
 10
647867.1099999999
 20
223061.65
 30
99.402
  0
INSERT
  5
615
330
1F8
100
AcDbEntity
  8
INGATLAN_NYILVÁNTARTÁSI_TÉRKÉP_
  6
Continuous
100
AcDbBlockReference
  2
RÉSZLETPONT_EGYÉB__I__RENDŰ_
 10
647809.72
 20
223012.8800000001
 30
99.53800000000001
  0
INSERT
  5
616
330
1F8
100
AcDbEntity
  8
INGATLAN_NYILVÁNTARTÁSI_TÉRKÉP_
  6
Continuous
100
AcDbBlockReference
  2
RÉSZLETPONT_EGYÉB__I__RENDŰ_
 10
647827.11
 20
223033.08
 30
99.176
  0
INSERT
  5
617
330
1F8
100
AcDbEntity
  8
INGATLAN_NYILVÁNTARTÁSI_TÉRKÉP_
  6
Continuous
100
AcDbBlockReference
  2
RÉSZLETPONT_EGYÉB__I__RENDŰ_
 10
647813.6000000001
 20
223007.48
 30
100.103
  0
INSERT
  5
618
330
1F8
100
AcDbEntity
  8
INGATLAN_NYILVÁNTARTÁSI_TÉRKÉP_
  6
Continuous
100
AcDbBlockReference
  2
RÉSZLETPONT_EGYÉB__I__RENDŰ_
 10
647839.2099999999
 20
223046.39
 30
98.94
  0
INSERT
  5
619
330
1F8
100
AcDbEntity
  8
INGATLAN_NYILVÁNTARTÁSI_TÉRKÉP_
  6
Continuous
100
AcDbBlockReference
  2
RÉSZLETPONT_EGYÉB__I__RENDŰ_
 10
647807.01
 20
223073.62
 30
98.73800000000001
  0
INSERT
  5
61A
330
1F8
100
AcDbEntity
  8
INGATLAN_NYILVÁNTARTÁSI_TÉRKÉP_
  6
Continuous
100
AcDbBlockReference
  2
RÉSZLETPONT_EGYÉB__I__RENDŰ_
 10
647818.4500000001
 20
223023.47
 30
99.48999999999999
  0
INSERT
  5
61B
330
1F8
100
AcDbEntity
  8
INGATLAN_NYILVÁNTARTÁSI_TÉRKÉP_
  6
Continuous
100
AcDbBlockReference
  2
RÉSZLETPONT_EGYÉB__I__RENDŰ_
 10
647840.2599999999
 20
223013.11
 30
100.002
  0
INSERT
  5
61C
330
1F8
100
AcDbEntity
  8
INGATLAN_NYILVÁNTARTÁSI_TÉRKÉP_
  6
Continuous
100
AcDbBlockReference
  2
RÉSZLETPONT_EGYÉB__I__RENDŰ_
 10
647848.1400000001
 20
223032.02
 30
99.67100000000002
  0
INSERT
  5
61D
330
1F8
100
AcDbEntity
  8
INGATLAN_NYILVÁNTARTÁSI_TÉRKÉP_
  6
Continuous
100
AcDbBlockReference
  2
RÉSZLETPONT_EGYÉB__I__RENDŰ_
 10
647837.54
 20
223019.43
 30
99.999
  0
INSERT
  5
61E
330
1F8
100
AcDbEntity
  8
INGATLAN_NYILVÁNTARTÁSI_TÉRKÉP_
  6
Continuous
100
AcDbBlockReference
  2
RÉSZLETPONT_EGYÉB__I__RENDŰ_
 10
647825.5799999999
 20
223006.38
 30
100.318
  0
INSERT
  5
61F
330
1F8
100
AcDbEntity
  8
EGYÉB
  6
Continuous
100
AcDbBlockReference
  2
ESÉSTÜSKE
 10
647830.05
 20
223047.06
 30
0.0
 50
319.7
  0
INSERT
  5
620
330
1F8
100
AcDbEntity
  8
EGYÉB
  6
Continuous
100
AcDbBlockReference
  2
ESÉSTÜSKE
 10
647826.38
 20
223026.4
 30
0.0
 50
18.4
  0
INSERT
  5
621
330
1F8
100
AcDbEntity
  8
EGYÉB
  6
Continuous
100
AcDbBlockReference
  2
ESÉSTÜSKE
 10
647802.48
 20
223036.86
 30
0.0
 50
8.099999999999999
  0
INSERT
  5
622
330
1F8
100
AcDbEntity
  8
EGYÉB
  6
Continuous
100
AcDbBlockReference
  2
ESÉSTÜSKE
 10
647807.2800000001
 20
223015.61
 30
0.0
 50
115.4
  0
INSERT
  5
623
330
1F8
100
AcDbEntity
  8
EGYÉB
  6
Continuous
100
AcDbBlockReference
  2
ESÉSTÜSKE
 10
647812.66
 20
223008.12
 30
0.0
 50
56.29999999999999
  0
INSERT
  5
624
330
1F8
100
AcDbEntity
  8
INGATLAN_NYILVÁNTARTÁSI_TÉRKÉP_
  6
Continuous
100
AcDbBlockReference
  2
RÉSZLETPONT_EGYÉB__I__RENDŰ_
 10
647813.47
 20
222997.23
 30
100.059
  0
INSERT
  5
625
330
1F8
100
AcDbEntity
  8
INGATLAN_NYILVÁNTARTÁSI_TÉRKÉP_
  6
Continuous
100
AcDbBlockReference
  2
RÉSZLETPONT_EGYÉB__I__RENDŰ_
 10
647811.41
 20
222999.48
 30
100.058
  0
ENDSEC
  0
SECTION
  2
OBJECTS
  0
DICTIONARY
  5
626
330
0
100
AcDbDictionary
281
     1
  3
ACAD_COLOR
350
4C4B47
  3
ACAD_GROUP
350
627
  3
ACAD_LAYOUT
350
4C4B4A
  3
ACAD_MATERIAL
350
4C4B46
  3
ACAD_MLINESTYLE
350
628
  3
ACAD_PLOTSETTINGS
350
4C4B4B
  3
ACAD_PLOTSTYLENAME
350
4C4B44
  3
ACAD_TABLESTYLE
350
4C4B48
  3
ACDBHEADERROUNDTRIPXREC
350
4C4B53
  3
AcDbVariableDictionary
350
4C4B4E
  0
DICTIONARY
  5
4C4B47
102
{ACAD_REACTORS
330
626
102
}
330
626
100
AcDbDictionary
281
     1
  0
DICTIONARY
  5
627
330
626
100
AcDbDictionary
281
     1
  0
DICTIONARY
  5
4C4B4A
102
{ACAD_REACTORS
330
626
102
}
330
626
100
AcDbDictionary
281
     1
  3
Layout1
350
4C4B4D
  3
Model
350
4C4B4C
  0
DICTIONARY
  5
4C4B46
102
{ACAD_REACTORS
330
626
102
}
330
626
100
AcDbDictionary
281
     1
  0
DICTIONARY
  5
628
330
626
100
AcDbDictionary
281
     1
  3
STANDARD
350
62A
  0
DICTIONARY
  5
4C4B4B
102
{ACAD_REACTORS
330
626
102
}
330
626
100
AcDbDictionary
281
     1
  0
ACDBDICTIONARYWDFLT
  5
4C4B44
102
{ACAD_REACTORS
330
626
102
}
330
626
100
AcDbDictionary
281
     1
  3
Normal
350
4C4B45
100
AcDbDictionaryWithDefault
340
4C4B45
  0
DICTIONARY
  5
4C4B48
102
{ACAD_REACTORS
330
626
102
}
330
626
100
AcDbDictionary
281
     1
  3
Standard
350
4C4B49
  0
DICTIONARY
  5
4C4B53
102
{ACAD_REACTORS
330
626
102
}
330
626
100
AcDbDictionary
281
     1
  0
DICTIONARY
  5
4C4B4E
102
{ACAD_REACTORS
330
626
102
}
330
626
100
AcDbDictionary
281
     1
  3
CTABLESTYLE
350
4C4B4F
  3
DIMASSOC
350
4C4B50
  3
PROJECTNAME
350
4C4B51
  0
LAYOUT
  5
4C4B4D
102
{ACAD_XDICTIONARY
360
4C4B56
102
}
102
{ACAD_REACTORS
330
4C4B4A
102
}
330
4C4B4A
100
AcDbPlotSettings
  1

  2
Konica Fénymásoló
  4

  6

 40
0.0
 41
0.0
 42
0.0
 43
0.0
 44
0.0
 45
0.0
 46
0.0
 47
0.0
 48
0.0
 49
0.0
140
0.0
141
0.0
142
1.0
143
1.0
 70
   688
 72
     0
 73
     0
 74
     5
  7

 75
    16
147
1.0
148
0.0
149
0.0
100
AcDbLayout
  1
Layout1
 70
     1
 71
     1
 10
0.0
 20
0.0
 11
12.0
 21
9.0
 12
0.0
 22
0.0
 32
0.0
 14
1.000000000000000E+20
 24
1.000000000000000E+20
 34
1.000000000000000E+20
 15
-1.000000000000000E+20
 25
-1.000000000000000E+20
 35
-1.000000000000000E+20
146
0.0
 13
0.0
 23
0.0
 33
0.0
 16
1.0
 26
0.0
 36
0.0
 17
0.0
 27
1.0
 37
0.0
 76
     0
330
1F9
  0
LAYOUT
  5
4C4B4C
102
{ACAD_XDICTIONARY
360
4C4B54
102
}
102
{ACAD_REACTORS
330
4C4B4A
102
}
330
4C4B4A
100
AcDbPlotSettings
  1

  2
Konica Fénymásoló
  4

  6

 40
0.0
 41
0.0
 42
0.0
 43
0.0
 44
0.0
 45
0.0
 46
0.0
 47
0.0
 48
0.0
 49
0.0
140
0.0
141
0.0
142
1.0
143
1.0
 70
  1712
 72
     0
 73
     0
 74
     0
  7

 75
     0
147
1.0
148
0.0
149
0.0
100
AcDbLayout
  1
Model
 70
     1
 71
     0
 10
0.0
 20
0.0
 11
12.0
 21
9.0
 12
0.0
 22
0.0
 32
0.0
 14
0.0
 24
0.0
 34
0.0
 15
0.0
 25
0.0
 35
0.0
146
0.0
 13
0.0
 23
0.0
 33
0.0
 16
1.0
 26
0.0
 36
0.0
 17
0.0
 27
1.0
 37
0.0
 76
     0
330
1F8
  0
MLINESTYLE
  5
62A
330
628
100
AcDbMlineStyle
  2
STANDARD
 70
     0
  3

 62
     0
 51
90.0
 52
90.0
 71
     2
 49
0.5
 62
   256
  6
BYLAYER
 49
-0.5
 62
   256
  6
BYLAYER
  0
ACDBPLACEHOLDER
  5
4C4B45
102
{ACAD_REACTORS
330
4C4B44
102
}
330
4C4B44
  0
TABLESTYLE
  5
4C4B49
102
{ACAD_REACTORS
330
4C4B48
102
}
330
4C4B48
100
AcDbTableStyle
  3
Standard
 70
     0
 71
     0
 40
0.06
 41
0.06
280
     0
281
     0
  7
STANDARD
140
0.18
170
     2
 62
     0
 63
     7
283
     0
274
    -2
284
     1
 64
     0
275
    -2
285
     1
 65
     0
276
    -2
286
     1
 66
     0
277
    -2
287
     1
 67
     0
278
    -2
288
     1
 68
     0
279
    -2
289
     1
 69
     0
  7
STANDARD
140
0.25
170
     5
 62
     0
 63
     7
283
     0
274
    -2
284
     1
 64
     0
275
    -2
285
     1
 65
     0
276
    -2
286
     1
 66
     0
277
    -2
287
     1
 67
     0
278
    -2
288
     1
 68
     0
279
    -2
289
     1
 69
     0
  7
STANDARD
140
0.18
170
     5
 62
     0
 63
     7
283
     0
274
    -2
284
     1
 64
     0
275
    -2
285
     1
 65
     0
276
    -2
286
     1
 66
     0
277
    -2
287
     1
 67
     0
278
    -2
288
     1
 68
     0
279
    -2
289
     1
 69
     0
  0
DICTIONARYVAR
  5
4C4B4F
102
{ACAD_REACTORS
330
4C4B4E
102
}
330
4C4B4E
100
DictionaryVariables
280
     0
  1
STANDARD
  0
DICTIONARYVAR
  5
4C4B50
102
{ACAD_REACTORS
330
4C4B4E
102
}
330
4C4B4E
100
DictionaryVariables
280
     0
  1
1
  0
DICTIONARYVAR
  5
4C4B51
102
{ACAD_REACTORS
330
4C4B4E
102
}
330
4C4B4E
100
DictionaryVariables
280
     0
  1

  0
DICTIONARY
  5
4C4B56
330
4C4B4D
100
AcDbDictionary
280
     1
281
     1
  3
ACAD_XREC_ROUNDTRIP
360
4C4B57
  0
DICTIONARY
  5
4C4B54
330
4C4B4C
100
AcDbDictionary
280
     1
281
     1
  3
ACAD_XREC_ROUNDTRIP
360
4C4B55
  0
XRECORD
  5
4C4B57
102
{ACAD_REACTORS
330
4C4B56
102
}
330
4C4B56
100
AcDbXrecord
280
     1
102
SHADEPLOT
 70
     0
102
SHADEPLOTRESLEVEL
 70
     2
102
SHADEPLOTCUSTOMDPI
 70
   300
  0
XRECORD
  5
4C4B55
102
{ACAD_REACTORS
330
4C4B54
102
}
330
4C4B54
100
AcDbXrecord
280
     1
102
SHADEPLOT
 70
     0
102
SHADEPLOTRESLEVEL
 70
     2
102
SHADEPLOTCUSTOMDPI
 70
   300
  0
ENDSEC
  0
EOF

